  0
SECTION
  2
HEADER
  9
$ACADVER
  1
AC1009
  9
$DWGCODEPAGE
  3
ansi_1252
  9
$INSBASE
 10
0.0
 20
0.0
 30
0.0
  9
$EXTMIN
 10
70.486842105263
 20
126.115895808216
 30
0.0
  9
$EXTMAX
 10
552.486842105263
 20
293.753552631579
 30
0.0
  9
$LIMMIN
 10
0.0
 20
0.0
  9
$LIMMAX
 10
297.0000000001
 20
210.0000000001
  9
$ORTHOMODE
 70
           0
  9
$REGENMODE
 70
           1
  9
$FILLMODE
 70
           1
  9
$QTEXTMODE
 70
           0
  9
$MIRRTEXT
 70
           1
  9
$DRAGMODE
 70
           1
  9
$LTSCALE
 40
1.0
  9
$OSMODE
 70
          37
  9
$ATTMODE
 70
           1
  9
$TEXTSIZE
 40
2.0
  9
$TRACEWID
 40
0.05
  9
$TEXTSTYLE
  7
STANDARD
  9
$CLAYER
  8
0
  9
$CELTYPE
  6
CONTINUOUS
  9
$CECOLOR
 62
           7
  9
$DIMSCALE
 40
1.0
  9
$DIMASZ
 40
0.18
  9
$DIMEXO
 40
0.0625
  9
$DIMDLI
 40
0.38
  9
$DIMRND
 40
0.0000001
  9
$DIMDLE
 40
0.0
  9
$DIMEXE
 40
0.18
  9
$DIMTP
 40
0.0
  9
$DIMTM
 40
0.0
  9
$DIMTXT
 40
0.18
  9
$DIMCEN
 40
0.09
  9
$DIMTSZ
 40
0.0
  9
$DIMTOL
 70
           0
  9
$DIMLIM
 70
           0
  9
$DIMTIH
 70
           1
  9
$DIMTOH
 70
           1
  9
$DIMSE1
 70
           0
  9
$DIMSE2
 70
           0
  9
$DIMTAD
 70
           0
  9
$DIMZIN
 70
           0
  9
$DIMBLK
  1

  9
$DIMASO
 70
           0
  9
$DIMSHO
 70
           1
  9
$DIMPOST
  1

  9
$DIMAPOST
  1

  9
$DIMALT
 70
           0
  9
$DIMALTD
 70
           2
  9
$DIMALTF
 40
25.4
  9
$DIMLFAC
 40
1.0
  9
$DIMTOFL
 70
           0
  9
$DIMTVP
 40
0.0
  9
$DIMTIX
 70
           0
  9
$DIMSOXD
 70
           0
  9
$DIMSAH
 70
           0
  9
$DIMBLK1
  1

  9
$DIMBLK2
  1

  9
$DIMSTYLE
  2
STANDARD
  9
$DIMCLRD
 70
           0
  9
$DIMCLRE
 70
           0
  9
$DIMCLRT
 70
           0
  9
$DIMTFAC
 40
1.0
  9
$DIMGAP
 40
0.09
  9
$LUNITS
 70
           2
  9
$LUPREC
 70
           1
  9
$AXISMODE
 70
           0
  9
$AXISUNIT
 10
0.0
 20
0.0
  9
$SKETCHINC
 40
0.1
  9
$FILLETRAD
 40
1.6
  9
$AUNITS
 70
           0
  9
$AUPREC
 70
           2
  9
$MENU
  1
acad
  9
$ELEVATION
 40
0.0
  9
$PELEVATION
 40
0.0
  9
$THICKNESS
 40
0.0
  9
$LIMCHECK
 70
           0
  9
$BLIPMODE
 70
           1
  9
$CHAMFERA
 40
0.0
  9
$CHAMFERB
 40
0.0
  9
$SKPOLY
 70
           0
  9
$TDCREATE
 40
0.000000000
  9
$TDUPDATE
 40
2454120.332001945
  9
$TDINDWG
 40
0.0000142824
  9
$TDUSRTIMER
 40
0.0000142824
  9
$USRTIMER
 70
           1
  9
$ANGBASE
 50
0.0
  9
$ANGDIR
 70
           0
  9
$PDMODE
 70
           0
  9
$PDSIZE
 40
0.0
  9
$PLINEWID
 40
0.0
  9
$COORDS
 70
           0
  9
$SPLFRAME
 70
           0
  9
$SPLINETYPE
 70
           6
  9
$SPLINESEGS
 70
           8
  9
$ATTDIA
 70
           0
  9
$ATTREQ
 70
           1
  9
$HANDLING
 70
           1
  9
$HANDSEED
  5
6A4
  9
$SURFTAB1
 70
           6
  9
$SURFTAB2
 70
           6
  9
$SURFTYPE
 70
           6
  9
$SURFU
 70
           6
  9
$SURFV
 70
           6
  9
$UCSNAME
  2

  9
$UCSORG
 10
0.0
 20
0.0
 30
0.0
  9
$UCSXDIR
 10
1.0
 20
0.0
 30
0.0
  9
$UCSYDIR
 10
0.0
 20
1.0
 30
0.0
  9
$PUCSNAME
  2

  9
$PUCSORG
 10
0.0
 20
0.0
 30
0.0
  9
$PUCSXDIR
 10
1.0
 20
0.0
 30
0.0
  9
$PUCSYDIR
 10
0.0
 20
1.0
 30
0.0
  9
$USERI1
 70
           0
  9
$USERI2
 70
           0
  9
$USERI3
 70
           0
  9
$USERI4
 70
           0
  9
$USERI5
 70
           0
  9
$USERR1
 40
0.0
  9
$USERR2
 40
0.0
  9
$USERR3
 40
0.0
  9
$USERR4
 40
0.0
  9
$USERR5
 40
0.0
  9
$WORLDVIEW
 70
           1
  9
$SHADEDGE
 70
           3
  9
$SHADEDIF
 70
          70
  9
$TILEMODE
 70
           1
  9
$MAXACTVP
 70
          16
  9
$PINSBASE
 10
0.0
 20
0.0
 30
0.0
  9
$PLIMCHECK
 70
           0
  9
$PEXTMIN
 10
0.0
 20
0.0
 30
0.0
  9
$PEXTMAX
 10
0.0
 20
0.0
 30
0.0
  9
$PLIMMIN
 10
0.0
 20
0.0
  9
$PLIMMAX
 10
0.0
 20
0.0
  9
$UNITMODE
 70
           0
  9
$VISRETAIN
 70
           0
  9
$PLINEGEN
 70
           1
  9
$PSLTSCALE
 70
           1
  9
$TREEDEPTH
 70
        3020
  9
$DWGCODEPAGE
  3
ansi_1252
  0
ENDSEC
  0
SECTION
  2
TABLES
  0
TABLE
  2
VPORT
 70
           1
  0
VPORT
  2
*ACTIVE
 70
           0
 10
0.0
 20
0.0
 11
1.0
 21
1.0
 12
0.0
 22
0.0
 13
0.0
 23
0.0
 14
0.0
 24
0.0
 15
0.0
 25
0.0
 16
0.0
 26
0.0
 36
1.0
 17
319.239785755389
 27
189.673698147568
 37
0.0
 40
628.505298570227
 41
1.564473684211
 42
50.0
 43
0.0
 44
0.0
 50
0.0
 51
0.0
 71
           0
 72
         100
 73
           1
 74
           1
 75
           0
 76
           0
 77
           0
 78
           0
  0
ENDTAB
  0
TABLE
  2
LTYPE
 70
          54
  0
LTYPE
  2
CONTINUOUS
 70
          64
  3
Solid line
 72
          65
 73
           0
 40
0.0
  0
LTYPE
  2
DURCHGEHEND
 70
           0
  3
Durchgehend
 72
          65
 73
           0
 40
0.0
  0
LTYPE
  2
RAND
 70
           0
  3
Rand
 72
          65
 73
           6
 40
1.75
 49
0.5
 49
-0.25
 49
0.5
 49
-0.25
 49
0.0
 49
-0.25
  0
LTYPE
  2
MITTE
 70
           0
  3
Mitte
 72
          65
 73
           4
 40
2.0
 49
1.25
 49
-0.25
 49
0.25
 49
-0.25
  0
LTYPE
  2
STRICHPUNKT
 70
           0
  3
Strichpunkt
 72
          65
 73
           4
 40
1.0
 49
0.5
 49
-0.25
 49
0.0
 49
-0.25
  0
LTYPE
  2
GESTRICHELT
 70
           0
  3
Gestrichelt
 72
          65
 73
           2
 40
0.75
 49
0.5
 49
-0.25
  0
LTYPE
  2
TEILEN
 70
           0
  3
Teilen
 72
          65
 73
           6
 40
1.25
 49
0.5
 49
-0.25
 49
0.0
 49
-0.25
 49
0.0
 49
-0.25
  0
LTYPE
  2
PUNKT
 70
           0
  3
Punkt
 72
          65
 73
           2
 40
0.25
 49
0.0
 49
-0.25
  0
LTYPE
  2
VERDECKT
 70
           0
  3
Verdeckt
 72
          65
 73
           2
 40
0.375
 49
0.25
 49
-0.125
  0
LTYPE
  2
$INVISIBLE
 70
           0
  3
$INVISIBLE
 72
          65
 73
           2
 40
200.0
 49
-100.0
 49
-100.0
  0
LTYPE
  2
CONTINUOUS
 70
           0
  3
Continuous
 72
          65
 73
           0
 40
0.0
  0
LTYPE
  2
HIDDEN
 70
           0
  3
HIDDEN
 72
          65
 73
           2
 40
9.525
 49
6.35
 49
-3.175
  0
LTYPE
  2
DASHED
 70
           0
  3
DASHED
 72
          65
 73
           2
 40
19.05
 49
12.7
 49
-6.35
  0
LTYPE
  2
CENTER
 70
           0
  3
CENTER
 72
          65
 73
           4
 40
50.8
 49
31.75
 49
-6.35
 49
6.35
 49
-6.35
  0
LTYPE
  2
PHANTOM
 70
           0
  3
PHANTOM
 72
          65
 73
           6
 40
63.5
 49
31.75
 49
-6.35
 49
6.35
 49
-6.35
 49
6.35
 49
-6.35
  0
LTYPE
  2
DOT
 70
           0
  3
DOT
 72
          65
 73
           2
 40
6.35
 49
0.0
 49
-6.35
  0
LTYPE
  2
DASHDOT
 70
           0
  3
DASHDOT
 72
          65
 73
           4
 40
25.4
 49
12.7
 49
-6.35
 49
0.0
 49
-6.35
  0
LTYPE
  2
DIVIDE
 70
           0
  3
DIVIDE
 72
          65
 73
           6
 40
31.75
 49
12.7
 49
-6.35
 49
0.0
 49
-6.35
 49
0.0
 49
-6.35
  0
LTYPE
  2
BORDER
 70
           0
  3
BORDER
 72
          65
 73
           6
 40
44.45
 49
12.7
 49
-6.35
 49
12.7
 49
-6.35
 49
0.0
 49
-6.35
  0
LTYPE
  2
RAND2
 70
           0
  3
RAND2
 72
          65
 73
           6
 40
0.875
 49
0.25
 49
-0.125
 49
0.25
 49
-0.125
 49
0.0
 49
-0.125
  0
LTYPE
  2
RANDX2
 70
           0
  3
RANDX2
 72
          65
 73
           6
 40
3.5
 49
1.0
 49
-0.5
 49
1.0
 49
-0.5
 49
0.0
 49
-0.5
  0
LTYPE
  2
MITTE2
 70
           0
  3
MITTE2
 72
          65
 73
           4
 40
1.125
 49
0.75
 49
-0.125
 49
0.125
 49
-0.125
  0
LTYPE
  2
MITTEX2
 70
           0
  3
MITTEX2
 72
          65
 73
           4
 40
4.0
 49
2.5
 49
-0.5
 49
0.5
 49
-0.5
  0
LTYPE
  2
STRICHPUNKT2
 70
           0
  3
STRICHPUNKT2
 72
          65
 73
           4
 40
0.5
 49
0.25
 49
-0.125
 49
0.0
 49
-0.125
  0
LTYPE
  2
STRICHPUNKTX2
 70
           0
  3
STRICHPUNKTX2
 72
          65
 73
           4
 40
2.0
 49
1.0
 49
-0.5
 49
0.0
 49
-0.5
  0
LTYPE
  2
STRICHLINIE
 70
           0
  3
STRICHLINIE
 72
          65
 73
           2
 40
0.75
 49
0.5
 49
-0.25
  0
LTYPE
  2
STRICHLINIE2
 70
           0
  3
STRICHLINIE2
 72
          65
 73
           2
 40
0.375
 49
0.25
 49
-0.125
  0
LTYPE
  2
STRICHLINIEX2
 70
           0
  3
STRICHLINIEX2
 72
          65
 73
           2
 40
1.5
 49
1.0
 49
-0.5
  0
LTYPE
  2
GETRENNT
 70
           0
  3
GETRENNT
 72
          65
 73
           6
 40
1.25
 49
0.5
 49
-0.25
 49
0.0
 49
-0.25
 49
0.0
 49
-0.25
  0
LTYPE
  2
GETRENNT2
 70
           0
  3
GETRENNT2
 72
          65
 73
           6
 40
0.625
 49
0.25
 49
-0.125
 49
0.0
 49
-0.125
 49
0.0
 49
-0.125
  0
LTYPE
  2
GETRENNTX2
 70
           0
  3
GETRENNTX2
 72
          65
 73
           6
 40
2.5
 49
1.0
 49
-0.5
 49
0.0
 49
-0.5
 49
0.0
 49
-0.5
  0
LTYPE
  2
PUNKT2
 70
           0
  3
PUNKT2
 72
          65
 73
           2
 40
0.125
 49
0.0
 49
-0.125
  0
LTYPE
  2
PUNKTX2
 70
           0
  3
PUNKTX2
 72
          65
 73
           2
 40
0.5
 49
0.0
 49
-0.5
  0
LTYPE
  2
VERDECKT2
 70
           0
  3
VERDECKT2
 72
          65
 73
           2
 40
0.1875
 49
0.125
 49
-0.0625
  0
LTYPE
  2
VERDECKTX2
 70
           0
  3
VERDECKTX2
 72
          65
 73
           2
 40
0.75
 49
0.5
 49
-0.25
  0
LTYPE
  2
PHANTOM2
 70
           0
  3
PHANTOM2
 72
          65
 73
           6
 40
1.25
 49
0.625
 49
-0.125
 49
0.125
 49
-0.125
 49
0.125
 49
-0.125
  0
LTYPE
  2
PHANTOMX2
 70
           0
  3
PHANTOMX2
 72
          65
 73
           6
 40
5.0
 49
2.5
 49
-0.5
 49
0.5
 49
-0.5
 49
0.5
 49
-0.5
  0
LTYPE
  2
PUNKTE
 70
           0
  3
PUNKTE
 72
          65
 73
           2
 40
0.1
 49
0.05
 49
-0.05
  0
LTYPE
  2
ACAD_ISO02W100
 70
           0
  3
ACAD_ISO02W100
 72
          65
 73
           2
 40
15.0
 49
12.0
 49
-3.0
  0
LTYPE
  2
ACAD_ISO03W100
 70
           0
  3
ACAD_ISO03W100
 72
          65
 73
           2
 40
30.0
 49
12.0
 49
-18.0
  0
LTYPE
  2
ACAD_ISO04W100
 70
           0
  3
ACAD_ISO04W100
 72
          65
 73
           4
 40
30.5
 49
24.0
 49
-3.0
 49
0.5
 49
-3.0
  0
LTYPE
  2
ACAD_ISO05W100
 70
           0
  3
ACAD_ISO05W100
 72
          65
 73
           6
 40
34.0
 49
24.0
 49
-3.0
 49
0.5
 49
-3.0
 49
0.5
 49
-3.0
  0
LTYPE
  2
ACAD_ISO06W100
 70
           0
  3
ACAD_ISO06W100
 72
          65
 73
           6
 40
34.0
 49
24.0
 49
-3.0
 49
0.5
 49
-3.0
 49
0.5
 49
-3.0
  0
LTYPE
  2
ACAD_ISO07W100
 70
           0
  3
ACAD_ISO07W100
 72
          65
 73
           2
 40
3.5
 49
0.5
 49
-3.0
  0
LTYPE
  2
ACAD_ISO08W100
 70
           0
  3
ACAD_ISO08W100
 72
          65
 73
           4
 40
36.0
 49
24.0
 49
-3.0
 49
6.0
 49
-3.0
  0
LTYPE
  2
ACAD_ISO09W100
 70
           0
  3
ACAD_ISO09W100
 72
          65
 73
           6
 40
45.0
 49
24.0
 49
-3.0
 49
6.0
 49
-3.0
 49
6.0
 49
-3.0
  0
LTYPE
  2
ACAD_ISO10W100
 70
           0
  3
ACAD_ISO10W100
 72
          65
 73
           4
 40
18.5
 49
12.0
 49
-3.0
 49
0.5
 49
-3.0
  0
LTYPE
  2
ACAD_ISO11W100
 70
           0
  3
ACAD_ISO11W100
 72
          65
 73
           6
 40
33.5
 49
12.0
 49
-3.0
 49
12.0
 49
-3.0
 49
0.5
 49
-3.0
  0
LTYPE
  2
ACAD_ISO12W100
 70
           0
  3
ACAD_ISO12W100
 72
          65
 73
           6
 40
22.0
 49
12.0
 49
-3.0
 49
0.5
 49
-3.0
 49
0.5
 49
-3.0
  0
LTYPE
  2
ACAD_ISO13W100
 70
           0
  3
ACAD_ISO13W100
 72
          65
 73
           6
 40
33.5
 49
12.0
 49
-3.0
 49
12.0
 49
-3.0
 49
0.5
 49
-3.0
  0
LTYPE
  2
ACAD_ISO14W100
 70
           0
  3
ACAD_ISO14W100
 72
          65
 73
           6
 40
22.0
 49
12.0
 49
-3.0
 49
0.5
 49
-3.0
 49
0.5
 49
-3.0
  0
LTYPE
  2
ACAD_ISO15W100
 70
           0
  3
ACAD_ISO15W100
 72
          65
 73
           6
 40
33.5
 49
12.0
 49
-3.0
 49
12.0
 49
-3.0
 49
0.5
 49
-3.0
  0
LTYPE
  2
$SNAPEXT
 70
           0
  3
$SNAPEXT
 72
          65
 73
           2
 40
0.04
 49
0.02
 49
-0.02
  0
LTYPE
  2
$AUXILIARY
 70
           0
  3
$AUXILIARY
 72
          65
 73
           2
 40
0.1
 49
0.05
 49
-0.05
  0
ENDTAB
  0
TABLE
  2
LAYER
 70
           9
  0
LAYER
  2
0
 70
           0
 62
           7
  6
CONTINUOUS
  0
LAYER
  2
BEMAÿßUNGEN
 70
           0
 62
           7
  6
CONTINUOUS
  0
LAYER
  2
GEOMETRIE
 70
           0
 62
           7
  6
CONTINUOUS
  0
LAYER
  2
GEWINDE
 70
           0
 62
           7
  6
CONTINUOUS
  0
LAYER
  2
KONSTRUKTION
 70
           0
 62
           5
  6
CONTINUOUS
  0
LAYER
  2
MITTELLINIE
 70
           0
 62
           7
  6
CENTER
  0
LAYER
  2
SCHRAFFUR
 70
           0
 62
           7
  6
CONTINUOUS
  0
LAYER
  2
SYMBOLE
 70
           0
 62
           7
  6
CONTINUOUS
  0
LAYER
  2
VERDECKTE_KANTEN
 70
           0
 62
           7
  6
HIDDEN
  0
ENDTAB
  0
TABLE
  2
STYLE
 70
           6
  0
STYLE
  2
STANDARD
 70
           0
 40
0.0
 41
1.0
 50
0.0
 71
           0
 42
2.0
  3
TXT.SHX
  4

  0
STYLE
  2
ITALIC
 70
           0
 40
0.0
 41
1.0
 50
0.0
 71
           0
 42
2.0
  3
ITALIC.SHX
  4

  0
STYLE
  2
SIMPLEX
 70
           0
 40
0.0
 41
1.0
 50
0.0
 71
           0
 42
2.0
  3
SIMPLEX.SHX
  4

  0
STYLE
  2
COMPLEX
 70
           0
 40
0.0
 41
1.0
 50
0.0
 71
           0
 42
2.0
  3
COMPLEX.SHX
  4

  0
STYLE
  2
VERDANA
 70
           0
 40
0.0
 41
1.0
 50
0.0
 71
           0
 42
2.0
  3
VERDANA.SHX
  4

  0
STYLE
  2
_TCW_TXTSTY_1
 70
           0
 40
0.0
 41
1.0
 50
0.0
 71
           0
 42
3.75
  3
VERDANA.SHX
  4

  0
ENDTAB
  0
TABLE
  2
VIEW
 70
           0
  0
VIEW
  2
ANSICHT_0
 70
           0
 40
210.0
 10
148.5
 20
105.0
 41
297.0
 11
0.0
 21
0.0
 31
1.0
 12
0.0
 22
0.0
 32
0.0
 42
45.247172312671
 43
0.0
 44
0.0
 50
0.0
 71
           0
  0
ENDTAB
  0
TABLE
  2
UCS
 70
           0
  0
ENDTAB
  0
TABLE
  2
APPID
 70
           2
  0
APPID
  2
ACAD
 70
           0
  0
APPID
  2
TCAD
 70
           0
  0
ENDTAB
  0
TABLE
  2
DIMSTYLE
 70
           1
  0
DIMSTYLE
  2
STANDARD
 70
           0
  3

  4

  5

  6

  7

 40
1.0
 41
0.18
 42
0.0625
 43
0.38
 44
0.18
 45
0.0000001
 46
0.0
 47
0.0
 48
0.0
 71
           0
 72
           0
 73
           1
 74
           1
 75
           0
 76
           0
 77
           0
 78
           0
140
0.18
141
0.09
142
0.0
143
25.4
144
1.0
145
0.0
146
1.0
147
0.09
170
           0
171
           2
172
           0
173
           0
174
           0
175
           0
176
           0
177
           0
178
           0
  0
ENDTAB
  0
ENDSEC
  0
SECTION
  2
BLOCKS
  0
ENDSEC
  0
SECTION
  2
ENTITIES
  0
ARC
  8
0
  5
60
 10
375.338668843201
 20
250.102718644027
 30
0.0
 40
1.6
 50
-90.0
 51
0.0
1001
ACAD
1000
TCW40_DEV_WIDTH
1002
{
1040
-3.0
1002
}
  0
LINE
  8
0
  5
61
 10
70.486842105263
 20
293.753552631579
 30
0.0
 11
552.486842105263
 21
293.753552631579
 31
0.0
1001
ACAD
1000
TCW40_DEV_WIDTH
1002
{
1040
-3.0
1002
}
  0
LINE
  8
0
  5
62
 10
552.486842105263
 20
293.753552631579
 30
0.0
 11
552.486842105263
 21
160.753552631579
 31
0.0
1001
ACAD
1000
TCW40_DEV_WIDTH
1002
{
1040
-3.0
1002
}
  0
LINE
  8
0
  5
63
 10
552.486842105263
 20
160.753552631579
 30
0.0
 11
70.486842105263
 21
160.753552631579
 31
0.0
1001
ACAD
1000
TCW40_DEV_WIDTH
1002
{
1040
-3.0
1002
}
  0
LINE
  8
0
  5
64
 10
70.486842105263
 20
160.753552631579
 30
0.0
 11
70.486842105263
 21
293.753552631579
 31
0.0
1001
ACAD
1000
TCW40_DEV_WIDTH
1002
{
1040
-3.0
1002
}
  0
LINE
  8
0
  5
65
 10
376.938668843201
 20
259.502718644027
 30
0.0
 11
376.938668843201
 21
250.102718644027
 31
0.0
1001
ACAD
1000
TCW40_DEV_WIDTH
1002
{
1040
-3.0
1002
}
  0
LINE
  8
0
  5
66
 10
375.338668843201
 20
248.502718644027
 30
0.0
 11
336.538668843201
 21
248.502718644027
 31
0.0
1001
ACAD
1000
TCW40_DEV_WIDTH
1002
{
1040
-3.0
1002
}
  0
LINE
  8
0
  5
67
 10
334.938668843201
 20
259.502718644027
 30
0.0
 11
334.938668843201
 21
250.102718644027
 31
0.0
1001
ACAD
1000
TCW40_DEV_WIDTH
1002
{
1040
-3.0
1002
}
  0
CIRCLE
  8
0
  5
68
 10
379.438668843201
 20
254.802718644027
 30
0.0
 40
1.6
  0
CIRCLE
  8
0
  5
69
 10
332.438668843201
 20
254.802718644027
 30
0.0
 40
1.6
  0
LINE
  8
0
  5
6A
 10
336.538668843201
 20
261.102718644027
 30
0.0
 11
375.338668843201
 21
261.102718644027
 31
0.0
1001
ACAD
1000
TCW40_DEV_WIDTH
1002
{
1040
-3.0
1002
}
  0
LINE
  8
0
  5
6B
 10
334.938668843201
 20
187.053552631579
 30
0.0
 11
334.938668843201
 21
196.453552631579
 31
0.0
1001
ACAD
1000
TCW40_DEV_WIDTH
1002
{
1040
-3.0
1002
}
  0
LINE
  8
0
  5
6C
 10
336.538668843201
 20
198.053552631579
 30
0.0
 11
375.338668843201
 21
198.053552631579
 31
0.0
1001
ACAD
1000
TCW40_DEV_WIDTH
1002
{
1040
-3.0
1002
}
  0
LINE
  8
0
  5
6D
 10
376.938668843201
 20
187.053552631579
 30
0.0
 11
376.938668843201
 21
196.453552631579
 31
0.0
1001
ACAD
1000
TCW40_DEV_WIDTH
1002
{
1040
-3.0
1002
}
  0
CIRCLE
  8
0
  5
6E
 10
332.438668843201
 20
191.753552631579
 30
0.0
 40
1.6
  0
CIRCLE
  8
0
  5
6F
 10
379.438668843201
 20
191.753552631579
 30
0.0
 40
1.6
  0
LINE
  8
0
  5
70
 10
375.338668843201
 20
185.453552631579
 30
0.0
 11
336.538668843201
 21
185.453552631579
 31
0.0
1001
ACAD
1000
TCW40_DEV_WIDTH
1002
{
1040
-3.0
1002
}
  0
LINE
  8
0
  5
71
 10
378.487641096011
 20
137.115895808216
 30
0.0
 11
378.487641096011
 21
127.715895808216
 31
0.0
1001
ACAD
1000
TCW40_DEV_WIDTH
1002
{
1040
-3.0
1002
}
  0
LINE
  8
0
  5
72
 10
376.887641096012
 20
126.115895808216
 30
0.0
 11
338.087641096011
 21
126.115895808216
 31
0.0
1001
ACAD
1000
TCW40_DEV_WIDTH
1002
{
1040
-3.0
1002
}
  0
LINE
  8
0
  5
73
 10
336.487641096011
 20
137.115895808216
 30
0.0
 11
336.487641096011
 21
127.715895808216
 31
0.0
1001
ACAD
1000
TCW40_DEV_WIDTH
1002
{
1040
-3.0
1002
}
  0
CIRCLE
  8
0
  5
74
 10
380.987641096011
 20
132.415895808216
 30
0.0
 40
1.6
  0
CIRCLE
  8
0
  5
75
 10
333.987641096011
 20
132.415895808216
 30
0.0
 40
1.6
  0
LINE
  8
0
  5
76
 10
338.087641096011
 20
138.715895808216
 30
0.0
 11
376.887641096012
 21
138.715895808216
 31
0.0
1001
ACAD
1000
TCW40_DEV_WIDTH
1002
{
1040
-3.0
1002
}
  0
LINE
  8
0
  5
77
 10
96.75473536136
 20
211.551359726937
 30
0.0
 11
115.55473536136
 21
211.551359726937
 31
0.0
1001
ACAD
1000
TCW40_DEV_WIDTH
1002
{
1040
-3.0
1002
}
  0
LINE
  8
0
  5
78
 10
117.15473536136
 20
209.951359726937
 30
0.0
 11
117.15473536136
 21
183.091359726937
 31
0.0
1001
ACAD
1000
TCW40_DEV_WIDTH
1002
{
1040
-3.0
1002
}
  0
LINE
  8
0
  5
79
 10
115.55473536136
 20
181.491359726937
 30
0.0
 11
96.75473536136
 21
181.491359726937
 31
0.0
1001
ACAD
1000
TCW40_DEV_WIDTH
1002
{
1040
-3.0
1002
}
  0
LINE
  8
0
  5
7A
 10
95.15473536136
 20
183.091359726937
 30
0.0
 11
95.15473536136
 21
209.951359726937
 31
0.0
1001
ACAD
1000
TCW40_DEV_WIDTH
1002
{
1040
-3.0
1002
}
  0
CIRCLE
  8
0
  5
7B
 10
486.237495982669
 20
271.196402372512
 30
0.0
 40
2.5
  0
CIRCLE
  8
0
  5
7C
 10
486.237495982669
 20
261.036402372511
 30
0.0
 40
2.5
  0
CIRCLE
  8
0
  5
7D
 10
486.237495982669
 20
250.876402372512
 30
0.0
 40
2.5
  0
CIRCLE
  8
0
  5
7E
 10
486.237495982669
 20
240.716402372512
 30
0.0
 40
2.5
  0
CIRCLE
  8
0
  5
7F
 10
486.237495982669
 20
230.556402372512
 30
0.0
 40
2.5
  0
CIRCLE
  8
0
  5
80
 10
486.237495982669
 20
220.396402372511
 30
0.0
 40
2.5
  0
CIRCLE
  8
0
  5
81
 10
486.237495982669
 20
210.236402372511
 30
0.0
 40
2.5
  0
CIRCLE
  8
0
  5
82
 10
437.977495982669
 20
220.396402372511
 30
0.0
 40
2.5
  0
CIRCLE
  8
0
  5
83
 10
437.977495982669
 20
230.556402372512
 30
0.0
 40
2.5
  0
CIRCLE
  8
0
  5
84
 10
437.977495982669
 20
250.876402372512
 30
0.0
 40
2.5
  0
CIRCLE
  8
0
  5
85
 10
437.977495982669
 20
261.036402372511
 30
0.0
 40
2.5
  0
CIRCLE
  8
0
  5
86
 10
437.977495982669
 20
271.196402372512
 30
0.0
 40
2.5
  0
CIRCLE
  8
0
  5
87
 10
437.977495982669
 20
240.716402372512
 30
0.0
 40
2.5
  0
CIRCLE
  8
0
  5
88
 10
437.977495982669
 20
210.236402372511
 30
0.0
 40
2.5
  0
LINE
  8
0
  5
89
 10
347.09353312713
 20
213.415117834974
 30
0.0
 11
347.09353312713
 21
222.815117834974
 31
0.0
1001
ACAD
1000
TCW40_DEV_WIDTH
1002
{
1040
-3.0
1002
}
  0
LINE
  8
0
  5
8A
 10
348.69353312713
 20
224.415117834974
 30
0.0
 11
365.49353312713
 21
224.415117834974
 31
0.0
1001
ACAD
1000
TCW40_DEV_WIDTH
1002
{
1040
-3.0
1002
}
  0
LINE
  8
0
  5
8B
 10
367.09353312713
 20
213.415117834974
 30
0.0
 11
367.09353312713
 21
222.815117834974
 31
0.0
1001
ACAD
1000
TCW40_DEV_WIDTH
1002
{
1040
-3.0
1002
}
  0
CIRCLE
  8
0
  5
8C
 10
344.59353312713
 20
218.115117834974
 30
0.0
 40
1.6
  0
CIRCLE
  8
0
  5
8D
 10
369.59353312713
 20
218.115117834974
 30
0.0
 40
1.6
  0
LINE
  8
0
  5
8E
 10
365.49353312713
 20
211.815117834974
 30
0.0
 11
348.69353312713
 21
211.815117834974
 31
0.0
1001
ACAD
1000
TCW40_DEV_WIDTH
1002
{
1040
-3.0
1002
}
  0
CIRCLE
  8
0
  5
8F
 10
146.157181286221
 20
265.588299810431
 30
0.0
 40
1.6
  0
CIRCLE
  8
0
  5
90
 10
146.157181286221
 20
242.588299810431
 30
0.0
 40
1.6
  0
CIRCLE
  8
0
  5
91
 10
176.637181286221
 20
242.588299810431
 30
0.0
 40
1.6
  0
CIRCLE
  8
0
  5
92
 10
176.637181286221
 20
265.588299810431
 30
0.0
 40
1.6
  0
CIRCLE
  8
0
  5
93
 10
207.117181286221
 20
265.588299810431
 30
0.0
 40
1.6
  0
CIRCLE
  8
0
  5
94
 10
207.117181286221
 20
242.588299810431
 30
0.0
 40
1.6
  0
CIRCLE
  8
0
  5
95
 10
237.59718128622
 20
265.588299810431
 30
0.0
 40
1.6
  0
CIRCLE
  8
0
  5
96
 10
237.59718128622
 20
242.588299810431
 30
0.0
 40
1.6
  0
ARC
  8
0
  5
97
 10
336.538668843201
 20
259.502718644027
 30
0.0
 40
1.6
 50
90.0
 51
179.999999999998
1001
ACAD
1000
TCW40_DEV_WIDTH
1002
{
1040
-3.0
1002
}
  0
ARC
  8
0
  5
98
 10
375.338668843201
 20
259.502718644027
 30
0.0
 40
1.6
 50
0.0
 51
90.0
1001
ACAD
1000
TCW40_DEV_WIDTH
1002
{
1040
-3.0
1002
}
  0
ARC
  8
0
  5
99
 10
336.538668843201
 20
250.102718644027
 30
0.0
 40
1.6
 50
180.0
 51
270.0
1001
ACAD
1000
TCW40_DEV_WIDTH
1002
{
1040
-3.0
1002
}
  0
ARC
  8
0
  5
9A
 10
338.087641096011
 20
137.115895808216
 30
0.0
 40
1.6
 50
90.0
 51
180.0
1001
ACAD
1000
TCW40_DEV_WIDTH
1002
{
1040
-3.0
1002
}
  0
ARC
  8
0
  5
9B
 10
338.087641096011
 20
127.715895808216
 30
0.0
 40
1.6
 50
180.0
 51
270.0
1001
ACAD
1000
TCW40_DEV_WIDTH
1002
{
1040
-3.0
1002
}
  0
ARC
  8
0
  5
9C
 10
376.887641096012
 20
127.715895808216
 30
0.0
 40
1.6
 50
-90.0
 51
0.0
1001
ACAD
1000
TCW40_DEV_WIDTH
1002
{
1040
-3.0
1002
}
  0
ARC
  8
0
  5
9D
 10
376.887641096012
 20
137.115895808216
 30
0.0
 40
1.6
 50
0.0
 51
90.0
1001
ACAD
1000
TCW40_DEV_WIDTH
1002
{
1040
-3.0
1002
}
  0
ARC
  8
0
  5
9E
 10
336.538668843201
 20
196.453552631579
 30
0.0
 40
1.6
 50
90.0
 51
180.000000000001
1001
ACAD
1000
TCW40_DEV_WIDTH
1002
{
1040
-3.0
1002
}
  0
ARC
  8
0
  5
9F
 10
375.338668843201
 20
196.453552631579
 30
0.0
 40
1.6
 50
0.0
 51
90.0
1001
ACAD
1000
TCW40_DEV_WIDTH
1002
{
1040
-3.0
1002
}
  0
ARC
  8
0
  5
A0
 10
375.338668843201
 20
187.053552631579
 30
0.0
 40
1.6
 50
-90.0
 51
0.0
1001
ACAD
1000
TCW40_DEV_WIDTH
1002
{
1040
-3.0
1002
}
  0
ARC
  8
0
  5
A1
 10
336.538668843201
 20
187.053552631579
 30
0.0
 40
1.6
 50
180.0
 51
270.0
1001
ACAD
1000
TCW40_DEV_WIDTH
1002
{
1040
-3.0
1002
}
  0
ARC
  8
0
  5
A2
 10
348.69353312713
 20
213.415117834974
 30
0.0
 40
1.6
 50
180.0
 51
270.0
1001
ACAD
1000
TCW40_DEV_WIDTH
1002
{
1040
-3.0
1002
}
  0
ARC
  8
0
  5
A3
 10
348.69353312713
 20
222.815117834974
 30
0.0
 40
1.6
 50
90.0
 51
179.999999999999
1001
ACAD
1000
TCW40_DEV_WIDTH
1002
{
1040
-3.0
1002
}
  0
ARC
  8
0
  5
A4
 10
365.49353312713
 20
222.815117834974
 30
0.0
 40
1.6
 50
0.0
 51
90.0
1001
ACAD
1000
TCW40_DEV_WIDTH
1002
{
1040
-3.0
1002
}
  0
ARC
  8
0
  5
A5
 10
365.49353312713
 20
213.415117834974
 30
0.0
 40
1.6
 50
-90.0
 51
0.0
1001
ACAD
1000
TCW40_DEV_WIDTH
1002
{
1040
-3.0
1002
}
  0
ARC
  8
0
  5
A6
 10
96.75473536136
 20
209.951359726937
 30
0.0
 40
1.6
 50
90.0
 51
180.000000000002
1001
ACAD
1000
TCW40_DEV_WIDTH
1002
{
1040
-3.0
1002
}
  0
ARC
  8
0
  5
A7
 10
115.55473536136
 20
209.951359726937
 30
0.0
 40
1.6
 50
0.0
 51
90.0
1001
ACAD
1000
TCW40_DEV_WIDTH
1002
{
1040
-3.0
1002
}
  0
ARC
  8
0
  5
A8
 10
115.55473536136
 20
183.091359726937
 30
0.0
 40
1.6
 50
-90.0
 51
0.0
1001
ACAD
1000
TCW40_DEV_WIDTH
1002
{
1040
-3.0
1002
}
  0
ARC
  8
0
  5
A9
 10
96.75473536136
 20
183.091359726937
 30
0.0
 40
1.6
 50
180.0
 51
270.0
1001
ACAD
1000
TCW40_DEV_WIDTH
1002
{
1040
-3.0
1002
}
  0
LINE
  8
0
  5
AA
 10
139.757181286221
 20
262.088299810431
 30
0.0
 11
152.557181286221
 21
262.088299810431
 31
0.0
1001
ACAD
1000
TCW40_DEV_WIDTH
1002
{
1040
-3.0
1002
}
  0
LINE
  8
0
  5
AB
 10
154.157181286221
 20
260.488299810431
 30
0.0
 11
154.157181286221
 21
247.688299810431
 31
0.0
1001
ACAD
1000
TCW40_DEV_WIDTH
1002
{
1040
-3.0
1002
}
  0
LINE
  8
0
  5
AC
 10
152.557181286221
 20
246.088299810431
 30
0.0
 11
139.757181286221
 21
246.088299810431
 31
0.0
1001
ACAD
1000
TCW40_DEV_WIDTH
1002
{
1040
-3.0
1002
}
  0
LINE
  8
0
  5
AD
 10
138.157181286221
 20
247.688299810431
 30
0.0
 11
138.157181286221
 21
260.488299810431
 31
0.0
1001
ACAD
1000
TCW40_DEV_WIDTH
1002
{
1040
-3.0
1002
}
  0
ARC
  8
0
  5
AE
 10
139.757181286221
 20
260.488299810431
 30
0.0
 40
1.6
 50
90.0
 51
180.0
1001
ACAD
1000
TCW40_DEV_WIDTH
1002
{
1040
-3.0
1002
}
  0
ARC
  8
0
  5
AF
 10
152.557181286221
 20
260.488299810431
 30
0.0
 40
1.6
 50
0.0
 51
90.0
1001
ACAD
1000
TCW40_DEV_WIDTH
1002
{
1040
-3.0
1002
}
  0
ARC
  8
0
  5
B0
 10
152.557181286221
 20
247.688299810431
 30
0.0
 40
1.6
 50
-90.0
 51
0.0
1001
ACAD
1000
TCW40_DEV_WIDTH
1002
{
1040
-3.0
1002
}
  0
ARC
  8
0
  5
B1
 10
139.757181286221
 20
247.688299810431
 30
0.0
 40
1.6
 50
180.0
 51
270.0
1001
ACAD
1000
TCW40_DEV_WIDTH
1002
{
1040
-3.0
1002
}
  0
LINE
  8
0
  5
B2
 10
170.237181286221
 20
262.088299810431
 30
0.0
 11
183.037181286221
 21
262.088299810431
 31
0.0
1001
ACAD
1000
TCW40_DEV_WIDTH
1002
{
1040
-3.0
1002
}
  0
LINE
  8
0
  5
B3
 10
184.637181286221
 20
260.488299810431
 30
0.0
 11
184.637181286221
 21
247.688299810431
 31
0.0
1001
ACAD
1000
TCW40_DEV_WIDTH
1002
{
1040
-3.0
1002
}
  0
LINE
  8
0
  5
B4
 10
183.037181286221
 20
246.088299810431
 30
0.0
 11
170.237181286221
 21
246.088299810431
 31
0.0
1001
ACAD
1000
TCW40_DEV_WIDTH
1002
{
1040
-3.0
1002
}
  0
LINE
  8
0
  5
B5
 10
168.637181286221
 20
247.688299810431
 30
0.0
 11
168.637181286221
 21
260.488299810431
 31
0.0
1001
ACAD
1000
TCW40_DEV_WIDTH
1002
{
1040
-3.0
1002
}
  0
ARC
  8
0
  5
B6
 10
170.237181286221
 20
260.488299810431
 30
0.0
 40
1.6
 50
90.0
 51
180.0
1001
ACAD
1000
TCW40_DEV_WIDTH
1002
{
1040
-3.0
1002
}
  0
ARC
  8
0
  5
B7
 10
183.037181286221
 20
260.488299810431
 30
0.0
 40
1.6
 50
0.0
 51
90.0
1001
ACAD
1000
TCW40_DEV_WIDTH
1002
{
1040
-3.0
1002
}
  0
ARC
  8
0
  5
B8
 10
183.037181286221
 20
247.688299810431
 30
0.0
 40
1.6
 50
-90.0
 51
0.0
1001
ACAD
1000
TCW40_DEV_WIDTH
1002
{
1040
-3.0
1002
}
  0
ARC
  8
0
  5
B9
 10
170.237181286221
 20
247.688299810431
 30
0.0
 40
1.6
 50
180.0
 51
270.0
1001
ACAD
1000
TCW40_DEV_WIDTH
1002
{
1040
-3.0
1002
}
  0
LINE
  8
0
  5
BA
 10
200.71718128622
 20
262.088299810431
 30
0.0
 11
213.517181286221
 21
262.088299810431
 31
0.0
1001
ACAD
1000
TCW40_DEV_WIDTH
1002
{
1040
-3.0
1002
}
  0
LINE
  8
0
  5
BB
 10
215.117181286221
 20
260.488299810431
 30
0.0
 11
215.117181286221
 21
247.688299810431
 31
0.0
1001
ACAD
1000
TCW40_DEV_WIDTH
1002
{
1040
-3.0
1002
}
  0
LINE
  8
0
  5
BC
 10
213.517181286221
 20
246.088299810431
 30
0.0
 11
200.71718128622
 21
246.088299810431
 31
0.0
1001
ACAD
1000
TCW40_DEV_WIDTH
1002
{
1040
-3.0
1002
}
  0
LINE
  8
0
  5
BD
 10
199.117181286221
 20
247.688299810431
 30
0.0
 11
199.117181286221
 21
260.488299810431
 31
0.0
1001
ACAD
1000
TCW40_DEV_WIDTH
1002
{
1040
-3.0
1002
}
  0
ARC
  8
0
  5
BE
 10
200.71718128622
 20
260.488299810431
 30
0.0
 40
1.6
 50
90.0
 51
180.0
1001
ACAD
1000
TCW40_DEV_WIDTH
1002
{
1040
-3.0
1002
}
  0
ARC
  8
0
  5
BF
 10
213.517181286221
 20
260.488299810431
 30
0.0
 40
1.6
 50
0.0
 51
90.0
1001
ACAD
1000
TCW40_DEV_WIDTH
1002
{
1040
-3.0
1002
}
  0
ARC
  8
0
  5
C0
 10
213.517181286221
 20
247.688299810431
 30
0.0
 40
1.6
 50
-90.0
 51
0.0
1001
ACAD
1000
TCW40_DEV_WIDTH
1002
{
1040
-3.0
1002
}
  0
ARC
  8
0
  5
C1
 10
200.71718128622
 20
247.688299810431
 30
0.0
 40
1.6
 50
180.0
 51
270.0
1001
ACAD
1000
TCW40_DEV_WIDTH
1002
{
1040
-3.0
1002
}
  0
LINE
  8
0
  5
C2
 10
230.749058061172
 20
262.030089976723
 30
0.0
 11
243.549058061172
 21
262.030089976723
 31
0.0
1001
ACAD
1000
TCW40_DEV_WIDTH
1002
{
1040
-3.0
1002
}
  0
LINE
  8
0
  5
C3
 10
245.149058061172
 20
260.430089976723
 30
0.0
 11
245.149058061172
 21
247.630089976723
 31
0.0
1001
ACAD
1000
TCW40_DEV_WIDTH
1002
{
1040
-3.0
1002
}
  0
LINE
  8
0
  5
C4
 10
243.549058061172
 20
246.030089976723
 30
0.0
 11
230.749058061172
 21
246.030089976723
 31
0.0
1001
ACAD
1000
TCW40_DEV_WIDTH
1002
{
1040
-3.0
1002
}
  0
LINE
  8
0
  5
C5
 10
229.149058061172
 20
247.630089976723
 30
0.0
 11
229.149058061172
 21
260.430089976723
 31
0.0
1001
ACAD
1000
TCW40_DEV_WIDTH
1002
{
1040
-3.0
1002
}
  0
ARC
  8
0
  5
C6
 10
230.749058061172
 20
260.430089976723
 30
0.0
 40
1.6
 50
90.0
 51
179.999999999998
1001
ACAD
1000
TCW40_DEV_WIDTH
1002
{
1040
-3.0
1002
}
  0
ARC
  8
0
  5
C7
 10
243.549058061172
 20
260.430089976723
 30
0.0
 40
1.6
 50
0.0
 51
90.0
1001
ACAD
1000
TCW40_DEV_WIDTH
1002
{
1040
-3.0
1002
}
  0
ARC
  8
0
  5
C8
 10
243.549058061172
 20
247.630089976723
 30
0.0
 40
1.6
 50
-90.0
 51
0.0
1001
ACAD
1000
TCW40_DEV_WIDTH
1002
{
1040
-3.0
1002
}
  0
ARC
  8
0
  5
C9
 10
230.749058061172
 20
247.630089976723
 30
0.0
 40
1.6
 50
180.0
 51
270.0
1001
ACAD
1000
TCW40_DEV_WIDTH
1002
{
1040
-3.0
1002
}
  0
TEXT
  8
0
  6
DURCHGEHEND
  5
CB
 10
98.541803937324
 20
218.767807095358
 30
0.0
 40
3.75
  1
Power
  7
_TCW_TXTSTY_1
1001
TCAD
1000
TCW40_TEXT
1002
{
1000
Verdana
1070
           0
1070
        1025
1002
}
  0
TEXT
  8
0
  6
DURCHGEHEND
  5
CC
 10
154.838295586274
 20
165.329804438704
 30
0.0
 40
3.75
  1
Relay 1
  7
_TCW_TXTSTY_1
1001
TCAD
1000
TCW40_TEXT
1002
{
1000
Verdana
1070
           0
1070
        1025
1002
}
  0
TEXT
  8
0
  6
DURCHGEHEND
  5
CD
 10
214.838295586274
 20
165.329804438704
 30
0.0
 40
3.75
  1
Relay 2
  7
_TCW_TXTSTY_1
1001
TCAD
1000
TCW40_TEXT
1002
{
1000
Verdana
1070
           0
1070
        1025
1002
}
  0
TEXT
  8
0
  6
DURCHGEHEND
  5
CE
 10
274.933778209817
 20
165.394012299486
 30
0.0
 40
3.75
  1
Spindle
  7
_TCW_TXTSTY_1
1001
TCAD
1000
TCW40_TEXT
1002
{
1000
Verdana
1070
           0
1070
        1025
1002
}
  0
TEXT
  8
0
  6
DURCHGEHEND
  5
CF
 10
343.491802268245
 20
264.385247164694
 30
0.0
 40
3.75
  1
Computer 1
  7
_TCW_TXTSTY_1
1001
TCAD
1000
TCW40_TEXT
1002
{
1000
Verdana
1070
           0
1070
        1025
1002
}
  0
TEXT
  8
0
  6
DURCHGEHEND
  5
D0
 10
344.899690538676
 20
141.663454079376
 30
0.0
 40
3.75
  1
Computer 2
  7
_TCW_TXTSTY_1
1001
TCAD
1000
TCW40_TEXT
1002
{
1000
Verdana
1070
           0
1070
        1025
1002
}
  0
TEXT
  8
0
  6
DURCHGEHEND
  5
D1
 10
347.244527140862
 20
201.278692061144
 30
0.0
 40
3.75
  1
Machine
  7
_TCW_TXTSTY_1
1001
TCAD
1000
TCW40_TEXT
1002
{
1000
Verdana
1070
           0
1070
        1025
1002
}
  0
TEXT
  8
0
  6
DURCHGEHEND
  5
D2
 10
346.578364778363
 20
227.388890975913
 30
0.0
 40
3.75
  1
Op. Panel
  7
_TCW_TXTSTY_1
1001
TCAD
1000
TCW40_TEXT
1002
{
1000
Verdana
1070
           0
1070
        1025
1002
}
  0
TEXT
  8
0
  6
DURCHGEHEND
  5
D3
 10
445.007164975753
 20
269.126082608242
 30
0.0
 40
3.75
  1
Power
  7
_TCW_TXTSTY_1
1001
TCAD
1000
TCW40_TEXT
1002
{
1000
Verdana
1070
           0
1070
        1025
1002
}
  0
TEXT
  8
0
  6
DURCHGEHEND
  5
D4
 10
444.945567149288
 20
259.042989854517
 30
0.0
 40
3.75
  1
Enable
  7
_TCW_TXTSTY_1
1001
TCAD
1000
TCW40_TEXT
1002
{
1000
Verdana
1070
           0
1070
        1025
1002
}
  0
TEXT
  8
0
  6
DURCHGEHEND
  5
D5
 10
444.931237197782
 20
248.855309419811
 30
0.0
 40
3.75
  1
Limit
  7
_TCW_TXTSTY_1
1001
TCAD
1000
TCW40_TEXT
1002
{
1000
Verdana
1070
           0
1070
        1025
1002
}
  0
TEXT
  8
0
  6
DURCHGEHEND
  5
D6
 10
444.959897100793
 20
238.681958936609
 30
0.0
 40
3.75
  1
E-Stop
  7
_TCW_TXTSTY_1
1001
TCAD
1000
TCW40_TEXT
1002
{
1000
Verdana
1070
           0
1070
        1025
1002
}
  0
TEXT
  8
0
  6
DURCHGEHEND
  5
D7
 10
444.945567149288
 20
228.577371255627
 30
0.0
 40
3.75
  1
Spindle
  7
_TCW_TXTSTY_1
1001
TCAD
1000
TCW40_TEXT
1002
{
1000
Verdana
1070
           0
1070
        1025
1002
}
  0
TEXT
  8
0
  6
DURCHGEHEND
  5
D8
 10
445.169149137129
 20
218.321177736494
 30
0.0
 40
3.75
  1
Relay 1
  7
_TCW_TXTSTY_1
1001
TCAD
1000
TCW40_TEXT
1002
{
1000
Verdana
1070
           0
1070
        1025
1002
}
  0
TEXT
  8
0
  6
DURCHGEHEND
  5
D9
 10
493.232540629598
 20
218.704888935386
 30
0.0
 40
3.75
  1
Relay 2
  7
_TCW_TXTSTY_1
1001
TCAD
1000
TCW40_TEXT
1002
{
1000
Verdana
1070
           0
1070
        1025
1002
}
  0
TEXT
  8
0
  6
DURCHGEHEND
  5
DA
 10
493.230670289224
 20
269.313763042948
 30
0.0
 40
3.75
  1
Home X
  7
_TCW_TXTSTY_1
1001
TCAD
1000
TCW40_TEXT
1002
{
1000
Verdana
1070
           0
1070
        1025
1002
}
  0
TEXT
  8
0
  6
DURCHGEHEND
  5
DB
 10
493.237835264977
 20
259.126082608242
 30
0.0
 40
3.75
  1
Home Y
  7
_TCW_TXTSTY_1
1001
TCAD
1000
TCW40_TEXT
1002
{
1000
Verdana
1070
           0
1070
        1025
1002
}
  0
TEXT
  8
0
  6
DURCHGEHEND
  5
DC
 10
493.230670289224
 20
248.855309419811
 30
0.0
 40
3.75
  1
Home Z
  7
_TCW_TXTSTY_1
1001
TCAD
1000
TCW40_TEXT
1002
{
1000
Verdana
1070
           0
1070
        1025
1002
}
  0
TEXT
  8
0
  6
DURCHGEHEND
  5
DD
 10
493.252165216483
 20
238.765051690334
 30
0.0
 40
3.75
  1
Home 4
  7
_TCW_TXTSTY_1
1001
TCAD
1000
TCW40_TEXT
1002
{
1000
Verdana
1070
           0
1070
        1025
1002
}
  0
TEXT
  8
0
  6
DURCHGEHEND
  5
DE
 10
493.349587921713
 20
228.674793960857
 30
0.0
 40
3.75
  1
Digi Probe
  7
_TCW_TXTSTY_1
1001
TCAD
1000
TCW40_TEXT
1002
{
1000
Verdana
1070
           0
1070
        1025
1002
}
  0
TEXT
  8
0
  6
DURCHGEHEND
  5
DF
 10
493.24500024073
 20
208.223505313471
 30
0.0
 40
3.75
  1
Spindle CCW
  7
_TCW_TXTSTY_1
1001
TCAD
1000
TCW40_TEXT
1002
{
1000
Verdana
1070
           0
1070
        1025
1002
}
  0
TEXT
  8
0
  6
DURCHGEHEND
  5
E0
 10
143.615832649877
 20
274.250892550776
 30
0.0
 40
6.0
  1
X
  7
_TCW_TXTSTY_1
1001
TCAD
1000
TCW40_TEXT
1002
{
1000
Verdana
1070
           0
1070
        1025
1002
}
  0
TEXT
  8
0
  6
DURCHGEHEND
  5
E1
 10
174.571836615196
 20
274.295810573459
 30
0.0
 40
6.0
  1
Y
  7
_TCW_TXTSTY_1
1001
TCAD
1000
TCW40_TEXT
1002
{
1000
Verdana
1070
           0
1070
        1025
1002
}
  0
TEXT
  8
0
  6
DURCHGEHEND
  5
E2
 10
204.681884486662
 20
274.183515516753
 30
0.0
 40
6.0
  1
Z
  7
_TCW_TXTSTY_1
1001
TCAD
1000
TCW40_TEXT
1002
{
1000
Verdana
1070
           0
1070
        1025
1002
}
  0
TEXT
  8
0
  6
DURCHGEHEND
  5
E3
 10
235.368380315887
 20
274.19848819098
 30
0.0
 40
6.0
  1
4
  7
_TCW_TXTSTY_1
1001
TCAD
1000
TCW40_TEXT
1002
{
1000
Verdana
1070
           0
1070
        1025
1002
}
  0
CIRCLE
  8
0
  6
DURCHGEHEND
 62
           7
  5
E4
 10
164.179678922955
 20
198.912262354089
 30
0.0
 40
21.75
1001
ACAD
1000
TCW40_DEV_WIDTH
1002
{
1040
-3.0
1002
}
1001
TCAD
1000
TCW_CUSTOM_DATA
1002
{
1000
#$AUX@_ToolInfo Properties
1070
           8
1000
Einfügen^JKreis^JMittelpunktUndPunkt@Kreis MittelpunktUndPunkt
1002
}
  0
POLYLINE
  8
0
  6
DURCHGEHEND
 62
           7
  5
E5
 66
           1
 10
0.0
 20
0.0
 30
0.0
 70
           1
1001
ACAD
1000
TCW40_DEV_WIDTH
1002
{
1040
-3.0
1002
}
  0
VERTEX
  8
0
  6
DURCHGEHEND
 62
           7
  5
E6
 10
146.678725462177
 20
218.352738544565
 30
0.0
  0
VERTEX
  8
0
  6
DURCHGEHEND
 62
           7
  5
E7
 10
146.675985184193
 20
218.459902645444
 30
0.0
  0
VERTEX
  8
0
  6
DURCHGEHEND
 62
           7
  5
E8
 10
146.667771861154
 20
218.56677301697
 30
0.0
  0
VERTEX
  8
0
  6
DURCHGEHEND
 62
           7
  5
E9
 10
146.654108005207
 20
218.673056734886
 30
0.0
  0
VERTEX
  8
0
  6
DURCHGEHEND
 62
           7
  5
EA
 10
146.635031068031
 20
218.778462482906
 30
0.0
  0
VERTEX
  8
0
  6
DURCHGEHEND
 62
           7
  5
EB
 10
146.610593338185
 20
218.882701351204
 30
0.0
  0
VERTEX
  8
0
  6
DURCHGEHEND
 62
           7
  5
EC
 10
146.580861797788
 20
218.985487628285
 30
0.0
  0
VERTEX
  8
0
  6
DURCHGEHEND
 62
           7
  5
ED
 10
146.545917938926
 20
219.08653958411
 30
0.0
  0
VERTEX
  8
0
  6
DURCHGEHEND
 62
           7
  5
EE
 10
146.505857540286
 20
219.185580242292
 30
0.0
  0
VERTEX
  8
0
  6
DURCHGEHEND
 62
           7
  5
EF
 10
146.460790404638
 20
219.28233813927
 30
0.0
  0
VERTEX
  8
0
  6
DURCHGEHEND
 62
           7
  5
F0
 10
146.410840057866
 20
219.376548068375
 30
0.0
  0
VERTEX
  8
0
  6
DURCHGEHEND
 62
           7
  5
F1
 10
146.3561434104
 20
219.467951806739
 30
0.0
  0
VERTEX
  8
0
  6
DURCHGEHEND
 62
           7
  5
F2
 10
146.296850381949
 20
219.556298823069
 30
0.0
  0
VERTEX
  8
0
  6
DURCHGEHEND
 62
           7
  5
F3
 10
146.233123490581
 20
219.641346964334
 30
0.0
  0
VERTEX
  8
0
  6
DURCHGEHEND
 62
           7
  5
F4
 10
146.165137407277
 20
219.72286311949
 30
0.0
  0
VERTEX
  8
0
  6
DURCHGEHEND
 62
           7
  5
F5
 10
146.093078477166
 20
219.800623858423
 30
0.0
  0
VERTEX
  8
0
  6
DURCHGEHEND
 62
           7
  5
F6
 10
146.017144208765
 20
219.874416044352
 30
0.0
  0
VERTEX
  8
0
  6
DURCHGEHEND
 62
           7
  5
F7
 10
145.937542732627
 20
219.944037418025
 30
0.0
  0
VERTEX
  8
0
  6
DURCHGEHEND
 62
           7
  5
F8
 10
145.854492230864
 20
220.009297152095
 30
0.0
  0
VERTEX
  8
0
  6
DURCHGEHEND
 62
           7
  5
F9
 10
145.76822033913
 20
220.070016374168
 30
0.0
  0
VERTEX
  8
0
  6
DURCHGEHEND
 62
           7
  5
FA
 10
145.678963522683
 20
220.126028657076
 30
0.0
  0
VERTEX
  8
0
  6
DURCHGEHEND
 62
           7
  5
FB
 10
145.586966428251
 20
220.177180475046
 30
0.0
  0
VERTEX
  8
0
  6
DURCHGEHEND
 62
           7
  5
FC
 10
145.492481213478
 20
220.2233316245
 30
0.0
  0
VERTEX
  8
0
  6
DURCHGEHEND
 62
           7
  5
FD
 10
145.395766855768
 20
220.264355608345
 30
0.0
  0
VERTEX
  8
0
  6
DURCHGEHEND
 62
           7
  5
FE
 10
145.297088442454
 20
220.300139982693
 30
0.0
  0
VERTEX
  8
0
  6
DURCHGEHEND
 62
           7
  5
FF
 10
145.196716444208
 20
220.330586665062
 30
0.0
  0
VERTEX
  8
0
  6
DURCHGEHEND
 62
           7
  5
100
 10
145.094925973699
 20
220.355612203211
 30
0.0
  0
VERTEX
  8
0
  6
DURCHGEHEND
 62
           7
  5
101
 10
144.991996031533
 20
220.375148003879
 30
0.0
  0
VERTEX
  8
0
  6
DURCHGEHEND
 62
           7
  5
102
 10
144.888208741526
 20
220.389140520795
 30
0.0
  0
VERTEX
  8
0
  6
DURCHGEHEND
 62
           7
  5
103
 10
144.783848577426
 20
220.397551401444
 30
0.0
  0
VERTEX
  8
0
  6
DURCHGEHEND
 62
           7
  5
104
 10
144.679201583188
 20
220.400357592184
 30
0.0
  0
VERTEX
  8
0
  6
DURCHGEHEND
 62
           7
  5
105
 10
144.574554588951
 20
220.397551401444
 30
0.0
  0
VERTEX
  8
0
  6
DURCHGEHEND
 62
           7
  5
106
 10
144.470194424851
 20
220.389140520795
 30
0.0
  0
VERTEX
  8
0
  6
DURCHGEHEND
 62
           7
  5
107
 10
144.366407134843
 20
220.375148003879
 30
0.0
  0
VERTEX
  8
0
  6
DURCHGEHEND
 62
           7
  5
108
 10
144.263477192677
 20
220.355612203211
 30
0.0
  0
VERTEX
  8
0
  6
DURCHGEHEND
 62
           7
  5
109
 10
144.161686722169
 20
220.330586665062
 30
0.0
  0
VERTEX
  8
0
  6
DURCHGEHEND
 62
           7
  5
10A
 10
144.061314723922
 20
220.300139982693
 30
0.0
  0
VERTEX
  8
0
  6
DURCHGEHEND
 62
           7
  5
10B
 10
143.962636310608
 20
220.264355608345
 30
0.0
  0
VERTEX
  8
0
  6
DURCHGEHEND
 62
           7
  5
10C
 10
143.865921952899
 20
220.2233316245
 30
0.0
  0
VERTEX
  8
0
  6
DURCHGEHEND
 62
           7
  5
10D
 10
143.771436738125
 20
220.177180475046
 30
0.0
  0
VERTEX
  8
0
  6
DURCHGEHEND
 62
           7
  5
10E
 10
143.679439643694
 20
220.126028657076
 30
0.0
  0
VERTEX
  8
0
  6
DURCHGEHEND
 62
           7
  5
10F
 10
143.590182827246
 20
220.070016374168
 30
0.0
  0
VERTEX
  8
0
  6
DURCHGEHEND
 62
           7
  5
110
 10
143.503910935512
 20
220.009297152095
 30
0.0
  0
VERTEX
  8
0
  6
DURCHGEHEND
 62
           7
  5
111
 10
143.42086043375
 20
219.944037418025
 30
0.0
  0
VERTEX
  8
0
  6
DURCHGEHEND
 62
           7
  5
112
 10
143.341258957612
 20
219.874416044352
 30
0.0
  0
VERTEX
  8
0
  6
DURCHGEHEND
 62
           7
  5
113
 10
143.265324689211
 20
219.800623858423
 30
0.0
  0
VERTEX
  8
0
  6
DURCHGEHEND
 62
           7
  5
114
 10
143.193265759099
 20
219.72286311949
 30
0.0
  0
VERTEX
  8
0
  6
DURCHGEHEND
 62
           7
  5
115
 10
143.125279675795
 20
219.641346964334
 30
0.0
  0
VERTEX
  8
0
  6
DURCHGEHEND
 62
           7
  5
116
 10
143.061552784428
 20
219.556298823069
 30
0.0
  0
VERTEX
  8
0
  6
DURCHGEHEND
 62
           7
  5
117
 10
143.002259755976
 20
219.467951806739
 30
0.0
  0
VERTEX
  8
0
  6
DURCHGEHEND
 62
           7
  5
118
 10
142.94756310851
 20
219.376548068375
 30
0.0
  0
VERTEX
  8
0
  6
DURCHGEHEND
 62
           7
  5
119
 10
142.897612761739
 20
219.28233813927
 30
0.0
  0
VERTEX
  8
0
  6
DURCHGEHEND
 62
           7
  5
11A
 10
142.85254562609
 20
219.185580242292
 30
0.0
  0
VERTEX
  8
0
  6
DURCHGEHEND
 62
           7
  5
11B
 10
142.812485227451
 20
219.08653958411
 30
0.0
  0
VERTEX
  8
0
  6
DURCHGEHEND
 62
           7
  5
11C
 10
142.777541368588
 20
218.985487628285
 30
0.0
  0
VERTEX
  8
0
  6
DURCHGEHEND
 62
           7
  5
11D
 10
142.747809828191
 20
218.882701351204
 30
0.0
  0
VERTEX
  8
0
  6
DURCHGEHEND
 62
           7
  5
11E
 10
142.723372098346
 20
218.778462482906
 30
0.0
  0
VERTEX
  8
0
  6
DURCHGEHEND
 62
           7
  5
11F
 10
142.70429516117
 20
218.673056734886
 30
0.0
  0
VERTEX
  8
0
  6
DURCHGEHEND
 62
           7
  5
120
 10
142.690631305222
 20
218.56677301697
 30
0.0
  0
VERTEX
  8
0
  6
DURCHGEHEND
 62
           7
  5
121
 10
142.682417982183
 20
218.459902645444
 30
0.0
  0
VERTEX
  8
0
  6
DURCHGEHEND
 62
           7
  5
122
 10
142.6796777042
 20
218.352738544565
 30
0.0
  0
VERTEX
  8
0
  6
DURCHGEHEND
 62
           7
  5
123
 10
142.682417982183
 20
218.245574443687
 30
0.0
  0
VERTEX
  8
0
  6
DURCHGEHEND
 62
           7
  5
124
 10
142.690631305222
 20
218.13870407216
 30
0.0
  0
VERTEX
  8
0
  6
DURCHGEHEND
 62
           7
  5
125
 10
142.70429516117
 20
218.032420354245
 30
0.0
  0
VERTEX
  8
0
  6
DURCHGEHEND
 62
           7
  5
126
 10
142.723372098346
 20
217.927014606224
 30
0.0
  0
VERTEX
  8
0
  6
DURCHGEHEND
 62
           7
  5
127
 10
142.747809828191
 20
217.822775737927
 30
0.0
  0
VERTEX
  8
0
  6
DURCHGEHEND
 62
           7
  5
128
 10
142.777541368588
 20
217.719989460845
 30
0.0
  0
VERTEX
  8
0
  6
DURCHGEHEND
 62
           7
  5
129
 10
142.812485227451
 20
217.61893750502
 30
0.0
  0
VERTEX
  8
0
  6
DURCHGEHEND
 62
           7
  5
12A
 10
142.85254562609
 20
217.519896846839
 30
0.0
  0
VERTEX
  8
0
  6
DURCHGEHEND
 62
           7
  5
12B
 10
142.897612761739
 20
217.42313894986
 30
0.0
  0
VERTEX
  8
0
  6
DURCHGEHEND
 62
           7
  5
12C
 10
142.94756310851
 20
217.328929020756
 30
0.0
  0
VERTEX
  8
0
  6
DURCHGEHEND
 62
           7
  5
12D
 10
143.002259755976
 20
217.237525282392
 30
0.0
  0
VERTEX
  8
0
  6
DURCHGEHEND
 62
           7
  5
12E
 10
143.061552784428
 20
217.149178266062
 30
0.0
  0
VERTEX
  8
0
  6
DURCHGEHEND
 62
           7
  5
12F
 10
143.125279675795
 20
217.064130124796
 30
0.0
  0
VERTEX
  8
0
  6
DURCHGEHEND
 62
           7
  5
130
 10
143.193265759099
 20
216.98261396964
 30
0.0
  0
VERTEX
  8
0
  6
DURCHGEHEND
 62
           7
  5
131
 10
143.265324689211
 20
216.904853230707
 30
0.0
  0
VERTEX
  8
0
  6
DURCHGEHEND
 62
           7
  5
132
 10
143.341258957612
 20
216.831061044778
 30
0.0
  0
VERTEX
  8
0
  6
DURCHGEHEND
 62
           7
  5
133
 10
143.42086043375
 20
216.761439671106
 30
0.0
  0
VERTEX
  8
0
  6
DURCHGEHEND
 62
           7
  5
134
 10
143.503910935512
 20
216.696179937036
 30
0.0
  0
VERTEX
  8
0
  6
DURCHGEHEND
 62
           7
  5
135
 10
143.590182827246
 20
216.635460714963
 30
0.0
  0
VERTEX
  8
0
  6
DURCHGEHEND
 62
           7
  5
136
 10
143.679439643694
 20
216.579448432054
 30
0.0
  0
VERTEX
  8
0
  6
DURCHGEHEND
 62
           7
  5
137
 10
143.771436738125
 20
216.528296614084
 30
0.0
  0
VERTEX
  8
0
  6
DURCHGEHEND
 62
           7
  5
138
 10
143.865921952899
 20
216.48214546463
 30
0.0
  0
VERTEX
  8
0
  6
DURCHGEHEND
 62
           7
  5
139
 10
143.962636310608
 20
216.441121480785
 30
0.0
  0
VERTEX
  8
0
  6
DURCHGEHEND
 62
           7
  5
13A
 10
144.061314723922
 20
216.405337106437
 30
0.0
  0
VERTEX
  8
0
  6
DURCHGEHEND
 62
           7
  5
13B
 10
144.161686722169
 20
216.374890424069
 30
0.0
  0
VERTEX
  8
0
  6
DURCHGEHEND
 62
           7
  5
13C
 10
144.263477192677
 20
216.34986488592
 30
0.0
  0
VERTEX
  8
0
  6
DURCHGEHEND
 62
           7
  5
13D
 10
144.366407134843
 20
216.330329085251
 30
0.0
  0
VERTEX
  8
0
  6
DURCHGEHEND
 62
           7
  5
13E
 10
144.470194424851
 20
216.316336568335
 30
0.0
  0
VERTEX
  8
0
  6
DURCHGEHEND
 62
           7
  5
13F
 10
144.574554588951
 20
216.307925687687
 30
0.0
  0
VERTEX
  8
0
  6
DURCHGEHEND
 62
           7
  5
140
 10
144.679201583188
 20
216.305119496946
 30
0.0
  0
VERTEX
  8
0
  6
DURCHGEHEND
 62
           7
  5
141
 10
144.783848577426
 20
216.307925687687
 30
0.0
  0
VERTEX
  8
0
  6
DURCHGEHEND
 62
           7
  5
142
 10
144.888208741526
 20
216.316336568335
 30
0.0
  0
VERTEX
  8
0
  6
DURCHGEHEND
 62
           7
  5
143
 10
144.991996031533
 20
216.330329085251
 30
0.0
  0
VERTEX
  8
0
  6
DURCHGEHEND
 62
           7
  5
144
 10
145.094925973699
 20
216.34986488592
 30
0.0
  0
VERTEX
  8
0
  6
DURCHGEHEND
 62
           7
  5
145
 10
145.196716444208
 20
216.374890424069
 30
0.0
  0
VERTEX
  8
0
  6
DURCHGEHEND
 62
           7
  5
146
 10
145.297088442454
 20
216.405337106437
 30
0.0
  0
VERTEX
  8
0
  6
DURCHGEHEND
 62
           7
  5
147
 10
145.395766855768
 20
216.441121480785
 30
0.0
  0
VERTEX
  8
0
  6
DURCHGEHEND
 62
           7
  5
148
 10
145.492481213478
 20
216.48214546463
 30
0.0
  0
VERTEX
  8
0
  6
DURCHGEHEND
 62
           7
  5
149
 10
145.586966428251
 20
216.528296614084
 30
0.0
  0
VERTEX
  8
0
  6
DURCHGEHEND
 62
           7
  5
14A
 10
145.678963522683
 20
216.579448432054
 30
0.0
  0
VERTEX
  8
0
  6
DURCHGEHEND
 62
           7
  5
14B
 10
145.76822033913
 20
216.635460714963
 30
0.0
  0
VERTEX
  8
0
  6
DURCHGEHEND
 62
           7
  5
14C
 10
145.854492230864
 20
216.696179937036
 30
0.0
  0
VERTEX
  8
0
  6
DURCHGEHEND
 62
           7
  5
14D
 10
145.937542732627
 20
216.761439671106
 30
0.0
  0
VERTEX
  8
0
  6
DURCHGEHEND
 62
           7
  5
14E
 10
146.017144208765
 20
216.831061044778
 30
0.0
  0
VERTEX
  8
0
  6
DURCHGEHEND
 62
           7
  5
14F
 10
146.093078477166
 20
216.904853230707
 30
0.0
  0
VERTEX
  8
0
  6
DURCHGEHEND
 62
           7
  5
150
 10
146.165137407277
 20
216.98261396964
 30
0.0
  0
VERTEX
  8
0
  6
DURCHGEHEND
 62
           7
  5
151
 10
146.233123490581
 20
217.064130124796
 30
0.0
  0
VERTEX
  8
0
  6
DURCHGEHEND
 62
           7
  5
152
 10
146.296850381949
 20
217.149178266062
 30
0.0
  0
VERTEX
  8
0
  6
DURCHGEHEND
 62
           7
  5
153
 10
146.3561434104
 20
217.237525282392
 30
0.0
  0
VERTEX
  8
0
  6
DURCHGEHEND
 62
           7
  5
154
 10
146.410840057866
 20
217.328929020756
 30
0.0
  0
VERTEX
  8
0
  6
DURCHGEHEND
 62
           7
  5
155
 10
146.460790404638
 20
217.42313894986
 30
0.0
  0
VERTEX
  8
0
  6
DURCHGEHEND
 62
           7
  5
156
 10
146.505857540286
 20
217.519896846839
 30
0.0
  0
VERTEX
  8
0
  6
DURCHGEHEND
 62
           7
  5
157
 10
146.545917938926
 20
217.61893750502
 30
0.0
  0
VERTEX
  8
0
  6
DURCHGEHEND
 62
           7
  5
158
 10
146.580861797788
 20
217.719989460845
 30
0.0
  0
VERTEX
  8
0
  6
DURCHGEHEND
 62
           7
  5
159
 10
146.610593338185
 20
217.822775737927
 30
0.0
  0
VERTEX
  8
0
  6
DURCHGEHEND
 62
           7
  5
15A
 10
146.635031068031
 20
217.927014606224
 30
0.0
  0
VERTEX
  8
0
  6
DURCHGEHEND
 62
           7
  5
15B
 10
146.654108005207
 20
218.032420354245
 30
0.0
  0
VERTEX
  8
0
  6
DURCHGEHEND
 62
           7
  5
15C
 10
146.667771861154
 20
218.13870407216
 30
0.0
  0
VERTEX
  8
0
  6
DURCHGEHEND
 62
           7
  5
15D
 10
146.675985184193
 20
218.245574443687
 30
0.0
  0
SEQEND
  8
0
  6
DURCHGEHEND
 62
           7
  5
15E
  0
POLYLINE
  8
0
  6
DURCHGEHEND
 62
           7
  5
15F
 66
           1
 10
0.0
 20
0.0
 30
0.0
 70
           1
1001
ACAD
1000
TCW40_DEV_WIDTH
1002
{
1040
-3.0
1002
}
  0
VERTEX
  8
0
  6
DURCHGEHEND
 62
           7
  5
160
 10
185.6796777042
 20
218.36464330647
 30
0.0
  0
VERTEX
  8
0
  6
DURCHGEHEND
 62
           7
  5
161
 10
185.676937426216
 20
218.471807407348
 30
0.0
  0
VERTEX
  8
0
  6
DURCHGEHEND
 62
           7
  5
162
 10
185.668724103177
 20
218.578677778875
 30
0.0
  0
VERTEX
  8
0
  6
DURCHGEHEND
 62
           7
  5
163
 10
185.65506024723
 20
218.68496149679
 30
0.0
  0
VERTEX
  8
0
  6
DURCHGEHEND
 62
           7
  5
164
 10
185.635983310054
 20
218.790367244811
 30
0.0
  0
VERTEX
  8
0
  6
DURCHGEHEND
 62
           7
  5
165
 10
185.611545580208
 20
218.894606113108
 30
0.0
  0
VERTEX
  8
0
  6
DURCHGEHEND
 62
           7
  5
166
 10
185.581814039811
 20
218.99739239019
 30
0.0
  0
VERTEX
  8
0
  6
DURCHGEHEND
 62
           7
  5
167
 10
185.546870180948
 20
219.098444346015
 30
0.0
  0
VERTEX
  8
0
  6
DURCHGEHEND
 62
           7
  5
168
 10
185.506809782309
 20
219.197485004197
 30
0.0
  0
VERTEX
  8
0
  6
DURCHGEHEND
 62
           7
  5
169
 10
185.46174264666
 20
219.294242901175
 30
0.0
  0
VERTEX
  8
0
  6
DURCHGEHEND
 62
           7
  5
16A
 10
185.411792299889
 20
219.388452830279
 30
0.0
  0
VERTEX
  8
0
  6
DURCHGEHEND
 62
           7
  5
16B
 10
185.357095652423
 20
219.479856568644
 30
0.0
  0
VERTEX
  8
0
  6
DURCHGEHEND
 62
           7
  5
16C
 10
185.297802623971
 20
219.568203584974
 30
0.0
  0
VERTEX
  8
0
  6
DURCHGEHEND
 62
           7
  5
16D
 10
185.234075732604
 20
219.653251726239
 30
0.0
  0
VERTEX
  8
0
  6
DURCHGEHEND
 62
           7
  5
16E
 10
185.1660896493
 20
219.734767881395
 30
0.0
  0
VERTEX
  8
0
  6
DURCHGEHEND
 62
           7
  5
16F
 10
185.094030719188
 20
219.812528620328
 30
0.0
  0
VERTEX
  8
0
  6
DURCHGEHEND
 62
           7
  5
170
 10
185.018096450788
 20
219.886320806257
 30
0.0
  0
VERTEX
  8
0
  6
DURCHGEHEND
 62
           7
  5
171
 10
184.93849497465
 20
219.955942179929
 30
0.0
  0
VERTEX
  8
0
  6
DURCHGEHEND
 62
           7
  5
172
 10
184.855444472887
 20
220.021201914
 30
0.0
  0
VERTEX
  8
0
  6
DURCHGEHEND
 62
           7
  5
173
 10
184.769172581153
 20
220.081921136072
 30
0.0
  0
VERTEX
  8
0
  6
DURCHGEHEND
 62
           7
  5
174
 10
184.679915764705
 20
220.137933418981
 30
0.0
  0
VERTEX
  8
0
  6
DURCHGEHEND
 62
           7
  5
175
 10
184.587918670274
 20
220.189085236951
 30
0.0
  0
VERTEX
  8
0
  6
DURCHGEHEND
 62
           7
  5
176
 10
184.493433455501
 20
220.235236386405
 30
0.0
  0
VERTEX
  8
0
  6
DURCHGEHEND
 62
           7
  5
177
 10
184.396719097791
 20
220.27626037025
 30
0.0
  0
VERTEX
  8
0
  6
DURCHGEHEND
 62
           7
  5
178
 10
184.298040684477
 20
220.312044744598
 30
0.0
  0
VERTEX
  8
0
  6
DURCHGEHEND
 62
           7
  5
179
 10
184.19766868623
 20
220.342491426967
 30
0.0
  0
VERTEX
  8
0
  6
DURCHGEHEND
 62
           7
  5
17A
 10
184.095878215722
 20
220.367516965115
 30
0.0
  0
VERTEX
  8
0
  6
DURCHGEHEND
 62
           7
  5
17B
 10
183.992948273556
 20
220.387052765784
 30
0.0
  0
VERTEX
  8
0
  6
DURCHGEHEND
 62
           7
  5
17C
 10
183.889160983549
 20
220.4010452827
 30
0.0
  0
VERTEX
  8
0
  6
DURCHGEHEND
 62
           7
  5
17D
 10
183.784800819448
 20
220.409456163348
 30
0.0
  0
VERTEX
  8
0
  6
DURCHGEHEND
 62
           7
  5
17E
 10
183.680153825211
 20
220.412262354089
 30
0.0
  0
VERTEX
  8
0
  6
DURCHGEHEND
 62
           7
  5
17F
 10
183.575506830973
 20
220.409456163348
 30
0.0
  0
VERTEX
  8
0
  6
DURCHGEHEND
 62
           7
  5
180
 10
183.471146666873
 20
220.4010452827
 30
0.0
  0
VERTEX
  8
0
  6
DURCHGEHEND
 62
           7
  5
181
 10
183.367359376866
 20
220.387052765784
 30
0.0
  0
VERTEX
  8
0
  6
DURCHGEHEND
 62
           7
  5
182
 10
183.2644294347
 20
220.367516965115
 30
0.0
  0
VERTEX
  8
0
  6
DURCHGEHEND
 62
           7
  5
183
 10
183.162638964191
 20
220.342491426967
 30
0.0
  0
VERTEX
  8
0
  6
DURCHGEHEND
 62
           7
  5
184
 10
183.062266965945
 20
220.312044744598
 30
0.0
  0
VERTEX
  8
0
  6
DURCHGEHEND
 62
           7
  5
185
 10
182.963588552631
 20
220.27626037025
 30
0.0
  0
VERTEX
  8
0
  6
DURCHGEHEND
 62
           7
  5
186
 10
182.866874194921
 20
220.235236386405
 30
0.0
  0
VERTEX
  8
0
  6
DURCHGEHEND
 62
           7
  5
187
 10
182.772388980148
 20
220.189085236951
 30
0.0
  0
VERTEX
  8
0
  6
DURCHGEHEND
 62
           7
  5
188
 10
182.680391885717
 20
220.137933418981
 30
0.0
  0
VERTEX
  8
0
  6
DURCHGEHEND
 62
           7
  5
189
 10
182.591135069269
 20
220.081921136072
 30
0.0
  0
VERTEX
  8
0
  6
DURCHGEHEND
 62
           7
  5
18A
 10
182.504863177535
 20
220.021201914
 30
0.0
  0
VERTEX
  8
0
  6
DURCHGEHEND
 62
           7
  5
18B
 10
182.421812675772
 20
219.955942179929
 30
0.0
  0
VERTEX
  8
0
  6
DURCHGEHEND
 62
           7
  5
18C
 10
182.342211199634
 20
219.886320806257
 30
0.0
  0
VERTEX
  8
0
  6
DURCHGEHEND
 62
           7
  5
18D
 10
182.266276931234
 20
219.812528620328
 30
0.0
  0
VERTEX
  8
0
  6
DURCHGEHEND
 62
           7
  5
18E
 10
182.194218001122
 20
219.734767881395
 30
0.0
  0
VERTEX
  8
0
  6
DURCHGEHEND
 62
           7
  5
18F
 10
182.126231917818
 20
219.653251726239
 30
0.0
  0
VERTEX
  8
0
  6
DURCHGEHEND
 62
           7
  5
190
 10
182.062505026451
 20
219.568203584974
 30
0.0
  0
VERTEX
  8
0
  6
DURCHGEHEND
 62
           7
  5
191
 10
182.003211997999
 20
219.479856568644
 30
0.0
  0
VERTEX
  8
0
  6
DURCHGEHEND
 62
           7
  5
192
 10
181.948515350533
 20
219.388452830279
 30
0.0
  0
VERTEX
  8
0
  6
DURCHGEHEND
 62
           7
  5
193
 10
181.898565003762
 20
219.294242901175
 30
0.0
  0
VERTEX
  8
0
  6
DURCHGEHEND
 62
           7
  5
194
 10
181.853497868113
 20
219.197485004197
 30
0.0
  0
VERTEX
  8
0
  6
DURCHGEHEND
 62
           7
  5
195
 10
181.813437469473
 20
219.098444346015
 30
0.0
  0
VERTEX
  8
0
  6
DURCHGEHEND
 62
           7
  5
196
 10
181.778493610611
 20
218.99739239019
 30
0.0
  0
VERTEX
  8
0
  6
DURCHGEHEND
 62
           7
  5
197
 10
181.748762070214
 20
218.894606113108
 30
0.0
  0
VERTEX
  8
0
  6
DURCHGEHEND
 62
           7
  5
198
 10
181.724324340368
 20
218.790367244811
 30
0.0
  0
VERTEX
  8
0
  6
DURCHGEHEND
 62
           7
  5
199
 10
181.705247403192
 20
218.68496149679
 30
0.0
  0
VERTEX
  8
0
  6
DURCHGEHEND
 62
           7
  5
19A
 10
181.691583547245
 20
218.578677778875
 30
0.0
  0
VERTEX
  8
0
  6
DURCHGEHEND
 62
           7
  5
19B
 10
181.683370224206
 20
218.471807407348
 30
0.0
  0
VERTEX
  8
0
  6
DURCHGEHEND
 62
           7
  5
19C
 10
181.680629946222
 20
218.36464330647
 30
0.0
  0
VERTEX
  8
0
  6
DURCHGEHEND
 62
           7
  5
19D
 10
181.683370224206
 20
218.257479205592
 30
0.0
  0
VERTEX
  8
0
  6
DURCHGEHEND
 62
           7
  5
19E
 10
181.691583547245
 20
218.150608834065
 30
0.0
  0
VERTEX
  8
0
  6
DURCHGEHEND
 62
           7
  5
19F
 10
181.705247403192
 20
218.044325116149
 30
0.0
  0
VERTEX
  8
0
  6
DURCHGEHEND
 62
           7
  5
1A0
 10
181.724324340368
 20
217.938919368129
 30
0.0
  0
VERTEX
  8
0
  6
DURCHGEHEND
 62
           7
  5
1A1
 10
181.748762070214
 20
217.834680499831
 30
0.0
  0
VERTEX
  8
0
  6
DURCHGEHEND
 62
           7
  5
1A2
 10
181.778493610611
 20
217.73189422275
 30
0.0
  0
VERTEX
  8
0
  6
DURCHGEHEND
 62
           7
  5
1A3
 10
181.813437469473
 20
217.630842266925
 30
0.0
  0
VERTEX
  8
0
  6
DURCHGEHEND
 62
           7
  5
1A4
 10
181.853497868113
 20
217.531801608743
 30
0.0
  0
VERTEX
  8
0
  6
DURCHGEHEND
 62
           7
  5
1A5
 10
181.898565003762
 20
217.435043711765
 30
0.0
  0
VERTEX
  8
0
  6
DURCHGEHEND
 62
           7
  5
1A6
 10
181.948515350533
 20
217.34083378266
 30
0.0
  0
VERTEX
  8
0
  6
DURCHGEHEND
 62
           7
  5
1A7
 10
182.003211997999
 20
217.249430044296
 30
0.0
  0
VERTEX
  8
0
  6
DURCHGEHEND
 62
           7
  5
1A8
 10
182.062505026451
 20
217.161083027966
 30
0.0
  0
VERTEX
  8
0
  6
DURCHGEHEND
 62
           7
  5
1A9
 10
182.126231917818
 20
217.076034886701
 30
0.0
  0
VERTEX
  8
0
  6
DURCHGEHEND
 62
           7
  5
1AA
 10
182.194218001122
 20
216.994518731545
 30
0.0
  0
VERTEX
  8
0
  6
DURCHGEHEND
 62
           7
  5
1AB
 10
182.266276931234
 20
216.916757992612
 30
0.0
  0
VERTEX
  8
0
  6
DURCHGEHEND
 62
           7
  5
1AC
 10
182.342211199634
 20
216.842965806683
 30
0.0
  0
VERTEX
  8
0
  6
DURCHGEHEND
 62
           7
  5
1AD
 10
182.421812675772
 20
216.77334443301
 30
0.0
  0
VERTEX
  8
0
  6
DURCHGEHEND
 62
           7
  5
1AE
 10
182.504863177535
 20
216.70808469894
 30
0.0
  0
VERTEX
  8
0
  6
DURCHGEHEND
 62
           7
  5
1AF
 10
182.591135069269
 20
216.647365476867
 30
0.0
  0
VERTEX
  8
0
  6
DURCHGEHEND
 62
           7
  5
1B0
 10
182.680391885717
 20
216.591353193959
 30
0.0
  0
VERTEX
  8
0
  6
DURCHGEHEND
 62
           7
  5
1B1
 10
182.772388980148
 20
216.540201375989
 30
0.0
  0
VERTEX
  8
0
  6
DURCHGEHEND
 62
           7
  5
1B2
 10
182.866874194921
 20
216.494050226535
 30
0.0
  0
VERTEX
  8
0
  6
DURCHGEHEND
 62
           7
  5
1B3
 10
182.963588552631
 20
216.45302624269
 30
0.0
  0
VERTEX
  8
0
  6
DURCHGEHEND
 62
           7
  5
1B4
 10
183.062266965945
 20
216.417241868342
 30
0.0
  0
VERTEX
  8
0
  6
DURCHGEHEND
 62
           7
  5
1B5
 10
183.162638964191
 20
216.386795185973
 30
0.0
  0
VERTEX
  8
0
  6
DURCHGEHEND
 62
           7
  5
1B6
 10
183.2644294347
 20
216.361769647825
 30
0.0
  0
VERTEX
  8
0
  6
DURCHGEHEND
 62
           7
  5
1B7
 10
183.367359376866
 20
216.342233847156
 30
0.0
  0
VERTEX
  8
0
  6
DURCHGEHEND
 62
           7
  5
1B8
 10
183.471146666873
 20
216.32824133024
 30
0.0
  0
VERTEX
  8
0
  6
DURCHGEHEND
 62
           7
  5
1B9
 10
183.575506830973
 20
216.319830449592
 30
0.0
  0
VERTEX
  8
0
  6
DURCHGEHEND
 62
           7
  5
1BA
 10
183.680153825211
 20
216.317024258851
 30
0.0
  0
VERTEX
  8
0
  6
DURCHGEHEND
 62
           7
  5
1BB
 10
183.784800819448
 20
216.319830449592
 30
0.0
  0
VERTEX
  8
0
  6
DURCHGEHEND
 62
           7
  5
1BC
 10
183.889160983549
 20
216.32824133024
 30
0.0
  0
VERTEX
  8
0
  6
DURCHGEHEND
 62
           7
  5
1BD
 10
183.992948273556
 20
216.342233847156
 30
0.0
  0
VERTEX
  8
0
  6
DURCHGEHEND
 62
           7
  5
1BE
 10
184.095878215722
 20
216.361769647825
 30
0.0
  0
VERTEX
  8
0
  6
DURCHGEHEND
 62
           7
  5
1BF
 10
184.19766868623
 20
216.386795185973
 30
0.0
  0
VERTEX
  8
0
  6
DURCHGEHEND
 62
           7
  5
1C0
 10
184.298040684477
 20
216.417241868342
 30
0.0
  0
VERTEX
  8
0
  6
DURCHGEHEND
 62
           7
  5
1C1
 10
184.396719097791
 20
216.45302624269
 30
0.0
  0
VERTEX
  8
0
  6
DURCHGEHEND
 62
           7
  5
1C2
 10
184.493433455501
 20
216.494050226535
 30
0.0
  0
VERTEX
  8
0
  6
DURCHGEHEND
 62
           7
  5
1C3
 10
184.587918670274
 20
216.540201375989
 30
0.0
  0
VERTEX
  8
0
  6
DURCHGEHEND
 62
           7
  5
1C4
 10
184.679915764705
 20
216.591353193959
 30
0.0
  0
VERTEX
  8
0
  6
DURCHGEHEND
 62
           7
  5
1C5
 10
184.769172581153
 20
216.647365476867
 30
0.0
  0
VERTEX
  8
0
  6
DURCHGEHEND
 62
           7
  5
1C6
 10
184.855444472887
 20
216.70808469894
 30
0.0
  0
VERTEX
  8
0
  6
DURCHGEHEND
 62
           7
  5
1C7
 10
184.93849497465
 20
216.77334443301
 30
0.0
  0
VERTEX
  8
0
  6
DURCHGEHEND
 62
           7
  5
1C8
 10
185.018096450788
 20
216.842965806683
 30
0.0
  0
VERTEX
  8
0
  6
DURCHGEHEND
 62
           7
  5
1C9
 10
185.094030719188
 20
216.916757992612
 30
0.0
  0
VERTEX
  8
0
  6
DURCHGEHEND
 62
           7
  5
1CA
 10
185.1660896493
 20
216.994518731545
 30
0.0
  0
VERTEX
  8
0
  6
DURCHGEHEND
 62
           7
  5
1CB
 10
185.234075732604
 20
217.076034886701
 30
0.0
  0
VERTEX
  8
0
  6
DURCHGEHEND
 62
           7
  5
1CC
 10
185.297802623971
 20
217.161083027966
 30
0.0
  0
VERTEX
  8
0
  6
DURCHGEHEND
 62
           7
  5
1CD
 10
185.357095652423
 20
217.249430044296
 30
0.0
  0
VERTEX
  8
0
  6
DURCHGEHEND
 62
           7
  5
1CE
 10
185.411792299889
 20
217.34083378266
 30
0.0
  0
VERTEX
  8
0
  6
DURCHGEHEND
 62
           7
  5
1CF
 10
185.46174264666
 20
217.435043711765
 30
0.0
  0
VERTEX
  8
0
  6
DURCHGEHEND
 62
           7
  5
1D0
 10
185.506809782309
 20
217.531801608743
 30
0.0
  0
VERTEX
  8
0
  6
DURCHGEHEND
 62
           7
  5
1D1
 10
185.546870180948
 20
217.630842266925
 30
0.0
  0
VERTEX
  8
0
  6
DURCHGEHEND
 62
           7
  5
1D2
 10
185.581814039811
 20
217.73189422275
 30
0.0
  0
VERTEX
  8
0
  6
DURCHGEHEND
 62
           7
  5
1D3
 10
185.611545580208
 20
217.834680499831
 30
0.0
  0
VERTEX
  8
0
  6
DURCHGEHEND
 62
           7
  5
1D4
 10
185.635983310054
 20
217.938919368129
 30
0.0
  0
VERTEX
  8
0
  6
DURCHGEHEND
 62
           7
  5
1D5
 10
185.65506024723
 20
218.044325116149
 30
0.0
  0
VERTEX
  8
0
  6
DURCHGEHEND
 62
           7
  5
1D6
 10
185.668724103177
 20
218.150608834065
 30
0.0
  0
VERTEX
  8
0
  6
DURCHGEHEND
 62
           7
  5
1D7
 10
185.676937426216
 20
218.257479205592
 30
0.0
  0
SEQEND
  8
0
  6
DURCHGEHEND
 62
           7
  5
1D8
  0
POLYLINE
  8
0
  6
DURCHGEHEND
 62
           7
  5
1D9
 66
           1
 10
0.0
 20
0.0
 30
0.0
 70
           1
1001
ACAD
1000
TCW40_DEV_WIDTH
1002
{
1040
-3.0
1002
}
  0
VERTEX
  8
0
  6
DURCHGEHEND
 62
           7
  5
1DA
 10
146.678726680932
 20
179.447976639803
 30
0.0
  0
VERTEX
  8
0
  6
DURCHGEHEND
 62
           7
  5
1DB
 10
146.675986402949
 20
179.555140740682
 30
0.0
  0
VERTEX
  8
0
  6
DURCHGEHEND
 62
           7
  5
1DC
 10
146.66777307991
 20
179.662011112208
 30
0.0
  0
VERTEX
  8
0
  6
DURCHGEHEND
 62
           7
  5
1DD
 10
146.654109223962
 20
179.768294830124
 30
0.0
  0
VERTEX
  8
0
  6
DURCHGEHEND
 62
           7
  5
1DE
 10
146.635032286786
 20
179.873700578144
 30
0.0
  0
VERTEX
  8
0
  6
DURCHGEHEND
 62
           7
  5
1DF
 10
146.610594556941
 20
179.977939446442
 30
0.0
  0
VERTEX
  8
0
  6
DURCHGEHEND
 62
           7
  5
1E0
 10
146.580863016544
 20
180.080725723523
 30
0.0
  0
VERTEX
  8
0
  6
DURCHGEHEND
 62
           7
  5
1E1
 10
146.545919157681
 20
180.181777679348
 30
0.0
  0
VERTEX
  8
0
  6
DURCHGEHEND
 62
           7
  5
1E2
 10
146.505858759042
 20
180.28081833753
 30
0.0
  0
VERTEX
  8
0
  6
DURCHGEHEND
 62
           7
  5
1E3
 10
146.460791623393
 20
180.377576234508
 30
0.0
  0
VERTEX
  8
0
  6
DURCHGEHEND
 62
           7
  5
1E4
 10
146.410841276622
 20
180.471786163613
 30
0.0
  0
VERTEX
  8
0
  6
DURCHGEHEND
 62
           7
  5
1E5
 10
146.356144629156
 20
180.563189901977
 30
0.0
  0
VERTEX
  8
0
  6
DURCHGEHEND
 62
           7
  5
1E6
 10
146.296851600704
 20
180.651536918307
 30
0.0
  0
VERTEX
  8
0
  6
DURCHGEHEND
 62
           7
  5
1E7
 10
146.233124709337
 20
180.736585059572
 30
0.0
  0
VERTEX
  8
0
  6
DURCHGEHEND
 62
           7
  5
1E8
 10
146.165138626033
 20
180.818101214729
 30
0.0
  0
VERTEX
  8
0
  6
DURCHGEHEND
 62
           7
  5
1E9
 10
146.093079695921
 20
180.895861953661
 30
0.0
  0
VERTEX
  8
0
  6
DURCHGEHEND
 62
           7
  5
1EA
 10
146.01714542752
 20
180.96965413959
 30
0.0
  0
VERTEX
  8
0
  6
DURCHGEHEND
 62
           7
  5
1EB
 10
145.937543951382
 20
181.039275513263
 30
0.0
  0
VERTEX
  8
0
  6
DURCHGEHEND
 62
           7
  5
1EC
 10
145.85449344962
 20
181.104535247333
 30
0.0
  0
VERTEX
  8
0
  6
DURCHGEHEND
 62
           7
  5
1ED
 10
145.768221557886
 20
181.165254469406
 30
0.0
  0
VERTEX
  8
0
  6
DURCHGEHEND
 62
           7
  5
1EE
 10
145.678964741438
 20
181.221266752314
 30
0.0
  0
VERTEX
  8
0
  6
DURCHGEHEND
 62
           7
  5
1EF
 10
145.586967647007
 20
181.272418570284
 30
0.0
  0
VERTEX
  8
0
  6
DURCHGEHEND
 62
           7
  5
1F0
 10
145.492482432233
 20
181.318569719738
 30
0.0
  0
VERTEX
  8
0
  6
DURCHGEHEND
 62
           7
  5
1F1
 10
145.395768074524
 20
181.359593703583
 30
0.0
  0
VERTEX
  8
0
  6
DURCHGEHEND
 62
           7
  5
1F2
 10
145.29708966121
 20
181.395378077931
 30
0.0
  0
VERTEX
  8
0
  6
DURCHGEHEND
 62
           7
  5
1F3
 10
145.196717662963
 20
181.4258247603
 30
0.0
  0
VERTEX
  8
0
  6
DURCHGEHEND
 62
           7
  5
1F4
 10
145.094927192455
 20
181.450850298449
 30
0.0
  0
VERTEX
  8
0
  6
DURCHGEHEND
 62
           7
  5
1F5
 10
144.991997250288
 20
181.470386099117
 30
0.0
  0
VERTEX
  8
0
  6
DURCHGEHEND
 62
           7
  5
1F6
 10
144.888209960281
 20
181.484378616034
 30
0.0
  0
VERTEX
  8
0
  6
DURCHGEHEND
 62
           7
  5
1F7
 10
144.783849796181
 20
181.492789496682
 30
0.0
  0
VERTEX
  8
0
  6
DURCHGEHEND
 62
           7
  5
1F8
 10
144.679202801944
 20
181.495595687422
 30
0.0
  0
VERTEX
  8
0
  6
DURCHGEHEND
 62
           7
  5
1F9
 10
144.574555807706
 20
181.492789496682
 30
0.0
  0
VERTEX
  8
0
  6
DURCHGEHEND
 62
           7
  5
1FA
 10
144.470195643606
 20
181.484378616034
 30
0.0
  0
VERTEX
  8
0
  6
DURCHGEHEND
 62
           7
  5
1FB
 10
144.366408353599
 20
181.470386099117
 30
0.0
  0
VERTEX
  8
0
  6
DURCHGEHEND
 62
           7
  5
1FC
 10
144.263478411433
 20
181.450850298449
 30
0.0
  0
VERTEX
  8
0
  6
DURCHGEHEND
 62
           7
  5
1FD
 10
144.161687940924
 20
181.4258247603
 30
0.0
  0
VERTEX
  8
0
  6
DURCHGEHEND
 62
           7
  5
1FE
 10
144.061315942678
 20
181.395378077931
 30
0.0
  0
VERTEX
  8
0
  6
DURCHGEHEND
 62
           7
  5
1FF
 10
143.962637529364
 20
181.359593703583
 30
0.0
  0
VERTEX
  8
0
  6
DURCHGEHEND
 62
           7
  5
200
 10
143.865923171654
 20
181.318569719738
 30
0.0
  0
VERTEX
  8
0
  6
DURCHGEHEND
 62
           7
  5
201
 10
143.771437956881
 20
181.272418570284
 30
0.0
  0
VERTEX
  8
0
  6
DURCHGEHEND
 62
           7
  5
202
 10
143.679440862449
 20
181.221266752314
 30
0.0
  0
VERTEX
  8
0
  6
DURCHGEHEND
 62
           7
  5
203
 10
143.590184046002
 20
181.165254469406
 30
0.0
  0
VERTEX
  8
0
  6
DURCHGEHEND
 62
           7
  5
204
 10
143.503912154268
 20
181.104535247333
 30
0.0
  0
VERTEX
  8
0
  6
DURCHGEHEND
 62
           7
  5
205
 10
143.420861652505
 20
181.039275513263
 30
0.0
  0
VERTEX
  8
0
  6
DURCHGEHEND
 62
           7
  5
206
 10
143.341260176367
 20
180.96965413959
 30
0.0
  0
VERTEX
  8
0
  6
DURCHGEHEND
 62
           7
  5
207
 10
143.265325907966
 20
180.895861953661
 30
0.0
  0
VERTEX
  8
0
  6
DURCHGEHEND
 62
           7
  5
208
 10
143.193266977855
 20
180.818101214729
 30
0.0
  0
VERTEX
  8
0
  6
DURCHGEHEND
 62
           7
  5
209
 10
143.125280894551
 20
180.736585059572
 30
0.0
  0
VERTEX
  8
0
  6
DURCHGEHEND
 62
           7
  5
20A
 10
143.061554003183
 20
180.651536918307
 30
0.0
  0
VERTEX
  8
0
  6
DURCHGEHEND
 62
           7
  5
20B
 10
143.002260974732
 20
180.563189901977
 30
0.0
  0
VERTEX
  8
0
  6
DURCHGEHEND
 62
           7
  5
20C
 10
142.947564327266
 20
180.471786163613
 30
0.0
  0
VERTEX
  8
0
  6
DURCHGEHEND
 62
           7
  5
20D
 10
142.897613980494
 20
180.377576234508
 30
0.0
  0
VERTEX
  8
0
  6
DURCHGEHEND
 62
           7
  5
20E
 10
142.852546844846
 20
180.28081833753
 30
0.0
  0
VERTEX
  8
0
  6
DURCHGEHEND
 62
           7
  5
20F
 10
142.812486446206
 20
180.181777679348
 30
0.0
  0
VERTEX
  8
0
  6
DURCHGEHEND
 62
           7
  5
210
 10
142.777542587344
 20
180.080725723523
 30
0.0
  0
VERTEX
  8
0
  6
DURCHGEHEND
 62
           7
  5
211
 10
142.747811046947
 20
179.977939446442
 30
0.0
  0
VERTEX
  8
0
  6
DURCHGEHEND
 62
           7
  5
212
 10
142.723373317101
 20
179.873700578144
 30
0.0
  0
VERTEX
  8
0
  6
DURCHGEHEND
 62
           7
  5
213
 10
142.704296379925
 20
179.768294830124
 30
0.0
  0
VERTEX
  8
0
  6
DURCHGEHEND
 62
           7
  5
214
 10
142.690632523978
 20
179.662011112208
 30
0.0
  0
VERTEX
  8
0
  6
DURCHGEHEND
 62
           7
  5
215
 10
142.682419200939
 20
179.555140740682
 30
0.0
  0
VERTEX
  8
0
  6
DURCHGEHEND
 62
           7
  5
216
 10
142.679678922955
 20
179.447976639803
 30
0.0
  0
VERTEX
  8
0
  6
DURCHGEHEND
 62
           7
  5
217
 10
142.682419200939
 20
179.340812538925
 30
0.0
  0
VERTEX
  8
0
  6
DURCHGEHEND
 62
           7
  5
218
 10
142.690632523978
 20
179.233942167398
 30
0.0
  0
VERTEX
  8
0
  6
DURCHGEHEND
 62
           7
  5
219
 10
142.704296379925
 20
179.127658449483
 30
0.0
  0
VERTEX
  8
0
  6
DURCHGEHEND
 62
           7
  5
21A
 10
142.723373317101
 20
179.022252701462
 30
0.0
  0
VERTEX
  8
0
  6
DURCHGEHEND
 62
           7
  5
21B
 10
142.747811046947
 20
178.918013833165
 30
0.0
  0
VERTEX
  8
0
  6
DURCHGEHEND
 62
           7
  5
21C
 10
142.777542587344
 20
178.815227556083
 30
0.0
  0
VERTEX
  8
0
  6
DURCHGEHEND
 62
           7
  5
21D
 10
142.812486446206
 20
178.714175600258
 30
0.0
  0
VERTEX
  8
0
  6
DURCHGEHEND
 62
           7
  5
21E
 10
142.852546844846
 20
178.615134942077
 30
0.0
  0
VERTEX
  8
0
  6
DURCHGEHEND
 62
           7
  5
21F
 10
142.897613980494
 20
178.518377045099
 30
0.0
  0
VERTEX
  8
0
  6
DURCHGEHEND
 62
           7
  5
220
 10
142.947564327266
 20
178.424167115994
 30
0.0
  0
VERTEX
  8
0
  6
DURCHGEHEND
 62
           7
  5
221
 10
143.002260974732
 20
178.33276337763
 30
0.0
  0
VERTEX
  8
0
  6
DURCHGEHEND
 62
           7
  5
222
 10
143.061554003183
 20
178.2444163613
 30
0.0
  0
VERTEX
  8
0
  6
DURCHGEHEND
 62
           7
  5
223
 10
143.125280894551
 20
178.159368220035
 30
0.0
  0
VERTEX
  8
0
  6
DURCHGEHEND
 62
           7
  5
224
 10
143.193266977855
 20
178.077852064878
 30
0.0
  0
VERTEX
  8
0
  6
DURCHGEHEND
 62
           7
  5
225
 10
143.265325907966
 20
178.000091325945
 30
0.0
  0
VERTEX
  8
0
  6
DURCHGEHEND
 62
           7
  5
226
 10
143.341260176367
 20
177.926299140016
 30
0.0
  0
VERTEX
  8
0
  6
DURCHGEHEND
 62
           7
  5
227
 10
143.420861652505
 20
177.856677766344
 30
0.0
  0
VERTEX
  8
0
  6
DURCHGEHEND
 62
           7
  5
228
 10
143.503912154268
 20
177.791418032274
 30
0.0
  0
VERTEX
  8
0
  6
DURCHGEHEND
 62
           7
  5
229
 10
143.590184046002
 20
177.730698810201
 30
0.0
  0
VERTEX
  8
0
  6
DURCHGEHEND
 62
           7
  5
22A
 10
143.679440862449
 20
177.674686527292
 30
0.0
  0
VERTEX
  8
0
  6
DURCHGEHEND
 62
           7
  5
22B
 10
143.771437956881
 20
177.623534709322
 30
0.0
  0
VERTEX
  8
0
  6
DURCHGEHEND
 62
           7
  5
22C
 10
143.865923171654
 20
177.577383559868
 30
0.0
  0
VERTEX
  8
0
  6
DURCHGEHEND
 62
           7
  5
22D
 10
143.962637529364
 20
177.536359576023
 30
0.0
  0
VERTEX
  8
0
  6
DURCHGEHEND
 62
           7
  5
22E
 10
144.061315942678
 20
177.500575201675
 30
0.0
  0
VERTEX
  8
0
  6
DURCHGEHEND
 62
           7
  5
22F
 10
144.161687940924
 20
177.470128519307
 30
0.0
  0
VERTEX
  8
0
  6
DURCHGEHEND
 62
           7
  5
230
 10
144.263478411433
 20
177.445102981158
 30
0.0
  0
VERTEX
  8
0
  6
DURCHGEHEND
 62
           7
  5
231
 10
144.366408353599
 20
177.425567180489
 30
0.0
  0
VERTEX
  8
0
  6
DURCHGEHEND
 62
           7
  5
232
 10
144.470195643606
 20
177.411574663573
 30
0.0
  0
VERTEX
  8
0
  6
DURCHGEHEND
 62
           7
  5
233
 10
144.574555807706
 20
177.403163782925
 30
0.0
  0
VERTEX
  8
0
  6
DURCHGEHEND
 62
           7
  5
234
 10
144.679202801944
 20
177.400357592184
 30
0.0
  0
VERTEX
  8
0
  6
DURCHGEHEND
 62
           7
  5
235
 10
144.783849796181
 20
177.403163782925
 30
0.0
  0
VERTEX
  8
0
  6
DURCHGEHEND
 62
           7
  5
236
 10
144.888209960281
 20
177.411574663573
 30
0.0
  0
VERTEX
  8
0
  6
DURCHGEHEND
 62
           7
  5
237
 10
144.991997250288
 20
177.425567180489
 30
0.0
  0
VERTEX
  8
0
  6
DURCHGEHEND
 62
           7
  5
238
 10
145.094927192455
 20
177.445102981158
 30
0.0
  0
VERTEX
  8
0
  6
DURCHGEHEND
 62
           7
  5
239
 10
145.196717662963
 20
177.470128519307
 30
0.0
  0
VERTEX
  8
0
  6
DURCHGEHEND
 62
           7
  5
23A
 10
145.29708966121
 20
177.500575201675
 30
0.0
  0
VERTEX
  8
0
  6
DURCHGEHEND
 62
           7
  5
23B
 10
145.395768074524
 20
177.536359576023
 30
0.0
  0
VERTEX
  8
0
  6
DURCHGEHEND
 62
           7
  5
23C
 10
145.492482432233
 20
177.577383559868
 30
0.0
  0
VERTEX
  8
0
  6
DURCHGEHEND
 62
           7
  5
23D
 10
145.586967647007
 20
177.623534709322
 30
0.0
  0
VERTEX
  8
0
  6
DURCHGEHEND
 62
           7
  5
23E
 10
145.678964741438
 20
177.674686527292
 30
0.0
  0
VERTEX
  8
0
  6
DURCHGEHEND
 62
           7
  5
23F
 10
145.768221557886
 20
177.730698810201
 30
0.0
  0
VERTEX
  8
0
  6
DURCHGEHEND
 62
           7
  5
240
 10
145.85449344962
 20
177.791418032274
 30
0.0
  0
VERTEX
  8
0
  6
DURCHGEHEND
 62
           7
  5
241
 10
145.937543951382
 20
177.856677766344
 30
0.0
  0
VERTEX
  8
0
  6
DURCHGEHEND
 62
           7
  5
242
 10
146.01714542752
 20
177.926299140016
 30
0.0
  0
VERTEX
  8
0
  6
DURCHGEHEND
 62
           7
  5
243
 10
146.093079695921
 20
178.000091325945
 30
0.0
  0
VERTEX
  8
0
  6
DURCHGEHEND
 62
           7
  5
244
 10
146.165138626033
 20
178.077852064878
 30
0.0
  0
VERTEX
  8
0
  6
DURCHGEHEND
 62
           7
  5
245
 10
146.233124709337
 20
178.159368220035
 30
0.0
  0
VERTEX
  8
0
  6
DURCHGEHEND
 62
           7
  5
246
 10
146.296851600704
 20
178.2444163613
 30
0.0
  0
VERTEX
  8
0
  6
DURCHGEHEND
 62
           7
  5
247
 10
146.356144629156
 20
178.33276337763
 30
0.0
  0
VERTEX
  8
0
  6
DURCHGEHEND
 62
           7
  5
248
 10
146.410841276622
 20
178.424167115994
 30
0.0
  0
VERTEX
  8
0
  6
DURCHGEHEND
 62
           7
  5
249
 10
146.460791623393
 20
178.518377045099
 30
0.0
  0
VERTEX
  8
0
  6
DURCHGEHEND
 62
           7
  5
24A
 10
146.505858759042
 20
178.615134942077
 30
0.0
  0
VERTEX
  8
0
  6
DURCHGEHEND
 62
           7
  5
24B
 10
146.545919157681
 20
178.714175600258
 30
0.0
  0
VERTEX
  8
0
  6
DURCHGEHEND
 62
           7
  5
24C
 10
146.580863016544
 20
178.815227556083
 30
0.0
  0
VERTEX
  8
0
  6
DURCHGEHEND
 62
           7
  5
24D
 10
146.610594556941
 20
178.918013833165
 30
0.0
  0
VERTEX
  8
0
  6
DURCHGEHEND
 62
           7
  5
24E
 10
146.635032286786
 20
179.022252701462
 30
0.0
  0
VERTEX
  8
0
  6
DURCHGEHEND
 62
           7
  5
24F
 10
146.654109223962
 20
179.127658449483
 30
0.0
  0
VERTEX
  8
0
  6
DURCHGEHEND
 62
           7
  5
250
 10
146.66777307991
 20
179.233942167398
 30
0.0
  0
VERTEX
  8
0
  6
DURCHGEHEND
 62
           7
  5
251
 10
146.675986402949
 20
179.340812538925
 30
0.0
  0
SEQEND
  8
0
  6
DURCHGEHEND
 62
           7
  5
252
  0
POLYLINE
  8
0
  6
DURCHGEHEND
 62
           7
  5
253
 66
           1
 10
0.0
 20
0.0
 30
0.0
 70
           1
1001
ACAD
1000
TCW40_DEV_WIDTH
1002
{
1040
-3.0
1002
}
  0
VERTEX
  8
0
  6
DURCHGEHEND
 62
           7
  5
254
 10
185.679678922955
 20
179.459881401708
 30
0.0
  0
VERTEX
  8
0
  6
DURCHGEHEND
 62
           7
  5
255
 10
185.676938644972
 20
179.567045502586
 30
0.0
  0
VERTEX
  8
0
  6
DURCHGEHEND
 62
           7
  5
256
 10
185.668725321932
 20
179.673915874113
 30
0.0
  0
VERTEX
  8
0
  6
DURCHGEHEND
 62
           7
  5
257
 10
185.655061465985
 20
179.780199592029
 30
0.0
  0
VERTEX
  8
0
  6
DURCHGEHEND
 62
           7
  5
258
 10
185.635984528809
 20
179.885605340049
 30
0.0
  0
VERTEX
  8
0
  6
DURCHGEHEND
 62
           7
  5
259
 10
185.611546798963
 20
179.989844208347
 30
0.0
  0
VERTEX
  8
0
  6
DURCHGEHEND
 62
           7
  5
25A
 10
185.581815258566
 20
180.092630485428
 30
0.0
  0
VERTEX
  8
0
  6
DURCHGEHEND
 62
           7
  5
25B
 10
185.546871399704
 20
180.193682441253
 30
0.0
  0
VERTEX
  8
0
  6
DURCHGEHEND
 62
           7
  5
25C
 10
185.506811001064
 20
180.292723099435
 30
0.0
  0
VERTEX
  8
0
  6
DURCHGEHEND
 62
           7
  5
25D
 10
185.461743865416
 20
180.389480996413
 30
0.0
  0
VERTEX
  8
0
  6
DURCHGEHEND
 62
           7
  5
25E
 10
185.411793518644
 20
180.483690925518
 30
0.0
  0
VERTEX
  8
0
  6
DURCHGEHEND
 62
           7
  5
25F
 10
185.357096871178
 20
180.575094663882
 30
0.0
  0
VERTEX
  8
0
  6
DURCHGEHEND
 62
           7
  5
260
 10
185.297803842727
 20
180.663441680212
 30
0.0
  0
VERTEX
  8
0
  6
DURCHGEHEND
 62
           7
  5
261
 10
185.234076951359
 20
180.748489821477
 30
0.0
  0
VERTEX
  8
0
  6
DURCHGEHEND
 62
           7
  5
262
 10
185.166090868055
 20
180.830005976633
 30
0.0
  0
VERTEX
  8
0
  6
DURCHGEHEND
 62
           7
  5
263
 10
185.094031937944
 20
180.907766715566
 30
0.0
  0
VERTEX
  8
0
  6
DURCHGEHEND
 62
           7
  5
264
 10
185.018097669543
 20
180.981558901495
 30
0.0
  0
VERTEX
  8
0
  6
DURCHGEHEND
 62
           7
  5
265
 10
184.938496193405
 20
181.051180275168
 30
0.0
  0
VERTEX
  8
0
  6
DURCHGEHEND
 62
           7
  5
266
 10
184.855445691643
 20
181.116440009238
 30
0.0
  0
VERTEX
  8
0
  6
DURCHGEHEND
 62
           7
  5
267
 10
184.769173799908
 20
181.177159231311
 30
0.0
  0
VERTEX
  8
0
  6
DURCHGEHEND
 62
           7
  5
268
 10
184.679916983461
 20
181.233171514219
 30
0.0
  0
VERTEX
  8
0
  6
DURCHGEHEND
 62
           7
  5
269
 10
184.58791988903
 20
181.284323332189
 30
0.0
  0
VERTEX
  8
0
  6
DURCHGEHEND
 62
           7
  5
26A
 10
184.493434674256
 20
181.330474481643
 30
0.0
  0
VERTEX
  8
0
  6
DURCHGEHEND
 62
           7
  5
26B
 10
184.396720316546
 20
181.371498465488
 30
0.0
  0
VERTEX
  8
0
  6
DURCHGEHEND
 62
           7
  5
26C
 10
184.298041903232
 20
181.407282839836
 30
0.0
  0
VERTEX
  8
0
  6
DURCHGEHEND
 62
           7
  5
26D
 10
184.197669904986
 20
181.437729522205
 30
0.0
  0
VERTEX
  8
0
  6
DURCHGEHEND
 62
           7
  5
26E
 10
184.095879434477
 20
181.462755060353
 30
0.0
  0
VERTEX
  8
0
  6
DURCHGEHEND
 62
           7
  5
26F
 10
183.992949492311
 20
181.482290861022
 30
0.0
  0
VERTEX
  8
0
  6
DURCHGEHEND
 62
           7
  5
270
 10
183.889162202304
 20
181.496283377938
 30
0.0
  0
VERTEX
  8
0
  6
DURCHGEHEND
 62
           7
  5
271
 10
183.784802038204
 20
181.504694258586
 30
0.0
  0
VERTEX
  8
0
  6
DURCHGEHEND
 62
           7
  5
272
 10
183.680155043966
 20
181.507500449327
 30
0.0
  0
VERTEX
  8
0
  6
DURCHGEHEND
 62
           7
  5
273
 10
183.575508049729
 20
181.504694258586
 30
0.0
  0
VERTEX
  8
0
  6
DURCHGEHEND
 62
           7
  5
274
 10
183.471147885629
 20
181.496283377938
 30
0.0
  0
VERTEX
  8
0
  6
DURCHGEHEND
 62
           7
  5
275
 10
183.367360595622
 20
181.482290861022
 30
0.0
  0
VERTEX
  8
0
  6
DURCHGEHEND
 62
           7
  5
276
 10
183.264430653455
 20
181.462755060353
 30
0.0
  0
VERTEX
  8
0
  6
DURCHGEHEND
 62
           7
  5
277
 10
183.162640182947
 20
181.437729522205
 30
0.0
  0
VERTEX
  8
0
  6
DURCHGEHEND
 62
           7
  5
278
 10
183.0622681847
 20
181.407282839836
 30
0.0
  0
VERTEX
  8
0
  6
DURCHGEHEND
 62
           7
  5
279
 10
182.963589771386
 20
181.371498465488
 30
0.0
  0
VERTEX
  8
0
  6
DURCHGEHEND
 62
           7
  5
27A
 10
182.866875413677
 20
181.330474481643
 30
0.0
  0
VERTEX
  8
0
  6
DURCHGEHEND
 62
           7
  5
27B
 10
182.772390198903
 20
181.284323332189
 30
0.0
  0
VERTEX
  8
0
  6
DURCHGEHEND
 62
           7
  5
27C
 10
182.680393104472
 20
181.233171514219
 30
0.0
  0
VERTEX
  8
0
  6
DURCHGEHEND
 62
           7
  5
27D
 10
182.591136288024
 20
181.177159231311
 30
0.0
  0
VERTEX
  8
0
  6
DURCHGEHEND
 62
           7
  5
27E
 10
182.50486439629
 20
181.116440009238
 30
0.0
  0
VERTEX
  8
0
  6
DURCHGEHEND
 62
           7
  5
27F
 10
182.421813894528
 20
181.051180275168
 30
0.0
  0
VERTEX
  8
0
  6
DURCHGEHEND
 62
           7
  5
280
 10
182.34221241839
 20
180.981558901495
 30
0.0
  0
VERTEX
  8
0
  6
DURCHGEHEND
 62
           7
  5
281
 10
182.266278149989
 20
180.907766715566
 30
0.0
  0
VERTEX
  8
0
  6
DURCHGEHEND
 62
           7
  5
282
 10
182.194219219877
 20
180.830005976633
 30
0.0
  0
VERTEX
  8
0
  6
DURCHGEHEND
 62
           7
  5
283
 10
182.126233136574
 20
180.748489821477
 30
0.0
  0
VERTEX
  8
0
  6
DURCHGEHEND
 62
           7
  5
284
 10
182.062506245206
 20
180.663441680212
 30
0.0
  0
VERTEX
  8
0
  6
DURCHGEHEND
 62
           7
  5
285
 10
182.003213216755
 20
180.575094663882
 30
0.0
  0
VERTEX
  8
0
  6
DURCHGEHEND
 62
           7
  5
286
 10
181.948516569289
 20
180.483690925518
 30
0.0
  0
VERTEX
  8
0
  6
DURCHGEHEND
 62
           7
  5
287
 10
181.898566222517
 20
180.389480996413
 30
0.0
  0
VERTEX
  8
0
  6
DURCHGEHEND
 62
           7
  5
288
 10
181.853499086868
 20
180.292723099435
 30
0.0
  0
VERTEX
  8
0
  6
DURCHGEHEND
 62
           7
  5
289
 10
181.813438688229
 20
180.193682441253
 30
0.0
  0
VERTEX
  8
0
  6
DURCHGEHEND
 62
           7
  5
28A
 10
181.778494829366
 20
180.092630485428
 30
0.0
  0
VERTEX
  8
0
  6
DURCHGEHEND
 62
           7
  5
28B
 10
181.74876328897
 20
179.989844208347
 30
0.0
  0
VERTEX
  8
0
  6
DURCHGEHEND
 62
           7
  5
28C
 10
181.724325559124
 20
179.885605340049
 30
0.0
  0
VERTEX
  8
0
  6
DURCHGEHEND
 62
           7
  5
28D
 10
181.705248621948
 20
179.780199592029
 30
0.0
  0
VERTEX
  8
0
  6
DURCHGEHEND
 62
           7
  5
28E
 10
181.691584766
 20
179.673915874113
 30
0.0
  0
VERTEX
  8
0
  6
DURCHGEHEND
 62
           7
  5
28F
 10
181.683371442961
 20
179.567045502586
 30
0.0
  0
VERTEX
  8
0
  6
DURCHGEHEND
 62
           7
  5
290
 10
181.680631164978
 20
179.459881401708
 30
0.0
  0
VERTEX
  8
0
  6
DURCHGEHEND
 62
           7
  5
291
 10
181.683371442961
 20
179.35271730083
 30
0.0
  0
VERTEX
  8
0
  6
DURCHGEHEND
 62
           7
  5
292
 10
181.691584766
 20
179.245846929303
 30
0.0
  0
VERTEX
  8
0
  6
DURCHGEHEND
 62
           7
  5
293
 10
181.705248621948
 20
179.139563211388
 30
0.0
  0
VERTEX
  8
0
  6
DURCHGEHEND
 62
           7
  5
294
 10
181.724325559124
 20
179.034157463367
 30
0.0
  0
VERTEX
  8
0
  6
DURCHGEHEND
 62
           7
  5
295
 10
181.74876328897
 20
178.92991859507
 30
0.0
  0
VERTEX
  8
0
  6
DURCHGEHEND
 62
           7
  5
296
 10
181.778494829366
 20
178.827132317988
 30
0.0
  0
VERTEX
  8
0
  6
DURCHGEHEND
 62
           7
  5
297
 10
181.813438688229
 20
178.726080362163
 30
0.0
  0
VERTEX
  8
0
  6
DURCHGEHEND
 62
           7
  5
298
 10
181.853499086868
 20
178.627039703981
 30
0.0
  0
VERTEX
  8
0
  6
DURCHGEHEND
 62
           7
  5
299
 10
181.898566222517
 20
178.530281807003
 30
0.0
  0
VERTEX
  8
0
  6
DURCHGEHEND
 62
           7
  5
29A
 10
181.948516569289
 20
178.436071877899
 30
0.0
  0
VERTEX
  8
0
  6
DURCHGEHEND
 62
           7
  5
29B
 10
182.003213216755
 20
178.344668139534
 30
0.0
  0
VERTEX
  8
0
  6
DURCHGEHEND
 62
           7
  5
29C
 10
182.062506245206
 20
178.256321123204
 30
0.0
  0
VERTEX
  8
0
  6
DURCHGEHEND
 62
           7
  5
29D
 10
182.126233136574
 20
178.171272981939
 30
0.0
  0
VERTEX
  8
0
  6
DURCHGEHEND
 62
           7
  5
29E
 10
182.194219219877
 20
178.089756826783
 30
0.0
  0
VERTEX
  8
0
  6
DURCHGEHEND
 62
           7
  5
29F
 10
182.266278149989
 20
178.01199608785
 30
0.0
  0
VERTEX
  8
0
  6
DURCHGEHEND
 62
           7
  5
2A0
 10
182.34221241839
 20
177.938203901921
 30
0.0
  0
VERTEX
  8
0
  6
DURCHGEHEND
 62
           7
  5
2A1
 10
182.421813894528
 20
177.868582528249
 30
0.0
  0
VERTEX
  8
0
  6
DURCHGEHEND
 62
           7
  5
2A2
 10
182.50486439629
 20
177.803322794178
 30
0.0
  0
VERTEX
  8
0
  6
DURCHGEHEND
 62
           7
  5
2A3
 10
182.591136288025
 20
177.742603572106
 30
0.0
  0
VERTEX
  8
0
  6
DURCHGEHEND
 62
           7
  5
2A4
 10
182.680393104472
 20
177.686591289197
 30
0.0
  0
VERTEX
  8
0
  6
DURCHGEHEND
 62
           7
  5
2A5
 10
182.772390198903
 20
177.635439471227
 30
0.0
  0
VERTEX
  8
0
  6
DURCHGEHEND
 62
           7
  5
2A6
 10
182.866875413677
 20
177.589288321773
 30
0.0
  0
VERTEX
  8
0
  6
DURCHGEHEND
 62
           7
  5
2A7
 10
182.963589771386
 20
177.548264337928
 30
0.0
  0
VERTEX
  8
0
  6
DURCHGEHEND
 62
           7
  5
2A8
 10
183.0622681847
 20
177.51247996358
 30
0.0
  0
VERTEX
  8
0
  6
DURCHGEHEND
 62
           7
  5
2A9
 10
183.162640182947
 20
177.482033281211
 30
0.0
  0
VERTEX
  8
0
  6
DURCHGEHEND
 62
           7
  5
2AA
 10
183.264430653455
 20
177.457007743063
 30
0.0
  0
VERTEX
  8
0
  6
DURCHGEHEND
 62
           7
  5
2AB
 10
183.367360595622
 20
177.437471942394
 30
0.0
  0
VERTEX
  8
0
  6
DURCHGEHEND
 62
           7
  5
2AC
 10
183.471147885629
 20
177.423479425478
 30
0.0
  0
VERTEX
  8
0
  6
DURCHGEHEND
 62
           7
  5
2AD
 10
183.575508049729
 20
177.41506854483
 30
0.0
  0
VERTEX
  8
0
  6
DURCHGEHEND
 62
           7
  5
2AE
 10
183.680155043966
 20
177.412262354089
 30
0.0
  0
VERTEX
  8
0
  6
DURCHGEHEND
 62
           7
  5
2AF
 10
183.784802038204
 20
177.41506854483
 30
0.0
  0
VERTEX
  8
0
  6
DURCHGEHEND
 62
           7
  5
2B0
 10
183.889162202304
 20
177.423479425478
 30
0.0
  0
VERTEX
  8
0
  6
DURCHGEHEND
 62
           7
  5
2B1
 10
183.992949492311
 20
177.437471942394
 30
0.0
  0
VERTEX
  8
0
  6
DURCHGEHEND
 62
           7
  5
2B2
 10
184.095879434477
 20
177.457007743063
 30
0.0
  0
VERTEX
  8
0
  6
DURCHGEHEND
 62
           7
  5
2B3
 10
184.197669904986
 20
177.482033281211
 30
0.0
  0
VERTEX
  8
0
  6
DURCHGEHEND
 62
           7
  5
2B4
 10
184.298041903232
 20
177.51247996358
 30
0.0
  0
VERTEX
  8
0
  6
DURCHGEHEND
 62
           7
  5
2B5
 10
184.396720316546
 20
177.548264337928
 30
0.0
  0
VERTEX
  8
0
  6
DURCHGEHEND
 62
           7
  5
2B6
 10
184.493434674256
 20
177.589288321773
 30
0.0
  0
VERTEX
  8
0
  6
DURCHGEHEND
 62
           7
  5
2B7
 10
184.58791988903
 20
177.635439471227
 30
0.0
  0
VERTEX
  8
0
  6
DURCHGEHEND
 62
           7
  5
2B8
 10
184.679916983461
 20
177.686591289197
 30
0.0
  0
VERTEX
  8
0
  6
DURCHGEHEND
 62
           7
  5
2B9
 10
184.769173799908
 20
177.742603572106
 30
0.0
  0
VERTEX
  8
0
  6
DURCHGEHEND
 62
           7
  5
2BA
 10
184.855445691643
 20
177.803322794178
 30
0.0
  0
VERTEX
  8
0
  6
DURCHGEHEND
 62
           7
  5
2BB
 10
184.938496193405
 20
177.868582528249
 30
0.0
  0
VERTEX
  8
0
  6
DURCHGEHEND
 62
           7
  5
2BC
 10
185.018097669543
 20
177.938203901921
 30
0.0
  0
VERTEX
  8
0
  6
DURCHGEHEND
 62
           7
  5
2BD
 10
185.094031937944
 20
178.01199608785
 30
0.0
  0
VERTEX
  8
0
  6
DURCHGEHEND
 62
           7
  5
2BE
 10
185.166090868055
 20
178.089756826783
 30
0.0
  0
VERTEX
  8
0
  6
DURCHGEHEND
 62
           7
  5
2BF
 10
185.234076951359
 20
178.171272981939
 30
0.0
  0
VERTEX
  8
0
  6
DURCHGEHEND
 62
           7
  5
2C0
 10
185.297803842727
 20
178.256321123204
 30
0.0
  0
VERTEX
  8
0
  6
DURCHGEHEND
 62
           7
  5
2C1
 10
185.357096871178
 20
178.344668139534
 30
0.0
  0
VERTEX
  8
0
  6
DURCHGEHEND
 62
           7
  5
2C2
 10
185.411793518644
 20
178.436071877899
 30
0.0
  0
VERTEX
  8
0
  6
DURCHGEHEND
 62
           7
  5
2C3
 10
185.461743865416
 20
178.530281807003
 30
0.0
  0
VERTEX
  8
0
  6
DURCHGEHEND
 62
           7
  5
2C4
 10
185.506811001064
 20
178.627039703981
 30
0.0
  0
VERTEX
  8
0
  6
DURCHGEHEND
 62
           7
  5
2C5
 10
185.546871399704
 20
178.726080362163
 30
0.0
  0
VERTEX
  8
0
  6
DURCHGEHEND
 62
           7
  5
2C6
 10
185.581815258566
 20
178.827132317988
 30
0.0
  0
VERTEX
  8
0
  6
DURCHGEHEND
 62
           7
  5
2C7
 10
185.611546798963
 20
178.92991859507
 30
0.0
  0
VERTEX
  8
0
  6
DURCHGEHEND
 62
           7
  5
2C8
 10
185.635984528809
 20
179.034157463367
 30
0.0
  0
VERTEX
  8
0
  6
DURCHGEHEND
 62
           7
  5
2C9
 10
185.655061465985
 20
179.139563211388
 30
0.0
  0
VERTEX
  8
0
  6
DURCHGEHEND
 62
           7
  5
2CA
 10
185.668725321932
 20
179.245846929303
 30
0.0
  0
VERTEX
  8
0
  6
DURCHGEHEND
 62
           7
  5
2CB
 10
185.676938644971
 20
179.35271730083
 30
0.0
  0
SEQEND
  8
0
  6
DURCHGEHEND
 62
           7
  5
2CC
  0
CIRCLE
  8
0
  6
DURCHGEHEND
 62
           7
  5
2CD
 10
224.179678922955
 20
198.912262354089
 30
0.0
 40
21.75
1001
ACAD
1000
TCW40_DEV_WIDTH
1002
{
1040
-3.0
1002
}
1001
TCAD
1000
TCW_CUSTOM_DATA
1002
{
1000
#$AUX@_ToolInfo Properties
1070
           8
1000
Einfügen^JKreis^JMittelpunktUndPunkt@Kreis MittelpunktUndPunkt
1002
}
  0
POLYLINE
  8
0
  6
DURCHGEHEND
 62
           7
  5
2CE
 66
           1
 10
0.0
 20
0.0
 30
0.0
 70
           1
1001
ACAD
1000
TCW40_DEV_WIDTH
1002
{
1040
-3.0
1002
}
  0
VERTEX
  8
0
  6
DURCHGEHEND
 62
           7
  5
2CF
 10
206.678725462177
 20
218.352738544565
 30
0.0
  0
VERTEX
  8
0
  6
DURCHGEHEND
 62
           7
  5
2D0
 10
206.675985184193
 20
218.459902645444
 30
0.0
  0
VERTEX
  8
0
  6
DURCHGEHEND
 62
           7
  5
2D1
 10
206.667771861154
 20
218.56677301697
 30
0.0
  0
VERTEX
  8
0
  6
DURCHGEHEND
 62
           7
  5
2D2
 10
206.654108005207
 20
218.673056734886
 30
0.0
  0
VERTEX
  8
0
  6
DURCHGEHEND
 62
           7
  5
2D3
 10
206.635031068031
 20
218.778462482906
 30
0.0
  0
VERTEX
  8
0
  6
DURCHGEHEND
 62
           7
  5
2D4
 10
206.610593338185
 20
218.882701351204
 30
0.0
  0
VERTEX
  8
0
  6
DURCHGEHEND
 62
           7
  5
2D5
 10
206.580861797788
 20
218.985487628285
 30
0.0
  0
VERTEX
  8
0
  6
DURCHGEHEND
 62
           7
  5
2D6
 10
206.545917938926
 20
219.08653958411
 30
0.0
  0
VERTEX
  8
0
  6
DURCHGEHEND
 62
           7
  5
2D7
 10
206.505857540286
 20
219.185580242292
 30
0.0
  0
VERTEX
  8
0
  6
DURCHGEHEND
 62
           7
  5
2D8
 10
206.460790404638
 20
219.28233813927
 30
0.0
  0
VERTEX
  8
0
  6
DURCHGEHEND
 62
           7
  5
2D9
 10
206.410840057866
 20
219.376548068375
 30
0.0
  0
VERTEX
  8
0
  6
DURCHGEHEND
 62
           7
  5
2DA
 10
206.3561434104
 20
219.467951806739
 30
0.0
  0
VERTEX
  8
0
  6
DURCHGEHEND
 62
           7
  5
2DB
 10
206.296850381949
 20
219.556298823069
 30
0.0
  0
VERTEX
  8
0
  6
DURCHGEHEND
 62
           7
  5
2DC
 10
206.233123490581
 20
219.641346964334
 30
0.0
  0
VERTEX
  8
0
  6
DURCHGEHEND
 62
           7
  5
2DD
 10
206.165137407277
 20
219.72286311949
 30
0.0
  0
VERTEX
  8
0
  6
DURCHGEHEND
 62
           7
  5
2DE
 10
206.093078477166
 20
219.800623858423
 30
0.0
  0
VERTEX
  8
0
  6
DURCHGEHEND
 62
           7
  5
2DF
 10
206.017144208765
 20
219.874416044352
 30
0.0
  0
VERTEX
  8
0
  6
DURCHGEHEND
 62
           7
  5
2E0
 10
205.937542732627
 20
219.944037418025
 30
0.0
  0
VERTEX
  8
0
  6
DURCHGEHEND
 62
           7
  5
2E1
 10
205.854492230864
 20
220.009297152095
 30
0.0
  0
VERTEX
  8
0
  6
DURCHGEHEND
 62
           7
  5
2E2
 10
205.76822033913
 20
220.070016374168
 30
0.0
  0
VERTEX
  8
0
  6
DURCHGEHEND
 62
           7
  5
2E3
 10
205.678963522683
 20
220.126028657076
 30
0.0
  0
VERTEX
  8
0
  6
DURCHGEHEND
 62
           7
  5
2E4
 10
205.586966428251
 20
220.177180475046
 30
0.0
  0
VERTEX
  8
0
  6
DURCHGEHEND
 62
           7
  5
2E5
 10
205.492481213478
 20
220.2233316245
 30
0.0
  0
VERTEX
  8
0
  6
DURCHGEHEND
 62
           7
  5
2E6
 10
205.395766855768
 20
220.264355608345
 30
0.0
  0
VERTEX
  8
0
  6
DURCHGEHEND
 62
           7
  5
2E7
 10
205.297088442454
 20
220.300139982693
 30
0.0
  0
VERTEX
  8
0
  6
DURCHGEHEND
 62
           7
  5
2E8
 10
205.196716444208
 20
220.330586665062
 30
0.0
  0
VERTEX
  8
0
  6
DURCHGEHEND
 62
           7
  5
2E9
 10
205.094925973699
 20
220.355612203211
 30
0.0
  0
VERTEX
  8
0
  6
DURCHGEHEND
 62
           7
  5
2EA
 10
204.991996031533
 20
220.375148003879
 30
0.0
  0
VERTEX
  8
0
  6
DURCHGEHEND
 62
           7
  5
2EB
 10
204.888208741526
 20
220.389140520795
 30
0.0
  0
VERTEX
  8
0
  6
DURCHGEHEND
 62
           7
  5
2EC
 10
204.783848577426
 20
220.397551401444
 30
0.0
  0
VERTEX
  8
0
  6
DURCHGEHEND
 62
           7
  5
2ED
 10
204.679201583188
 20
220.400357592184
 30
0.0
  0
VERTEX
  8
0
  6
DURCHGEHEND
 62
           7
  5
2EE
 10
204.574554588951
 20
220.397551401444
 30
0.0
  0
VERTEX
  8
0
  6
DURCHGEHEND
 62
           7
  5
2EF
 10
204.470194424851
 20
220.389140520795
 30
0.0
  0
VERTEX
  8
0
  6
DURCHGEHEND
 62
           7
  5
2F0
 10
204.366407134843
 20
220.375148003879
 30
0.0
  0
VERTEX
  8
0
  6
DURCHGEHEND
 62
           7
  5
2F1
 10
204.263477192677
 20
220.355612203211
 30
0.0
  0
VERTEX
  8
0
  6
DURCHGEHEND
 62
           7
  5
2F2
 10
204.161686722169
 20
220.330586665062
 30
0.0
  0
VERTEX
  8
0
  6
DURCHGEHEND
 62
           7
  5
2F3
 10
204.061314723922
 20
220.300139982693
 30
0.0
  0
VERTEX
  8
0
  6
DURCHGEHEND
 62
           7
  5
2F4
 10
203.962636310608
 20
220.264355608345
 30
0.0
  0
VERTEX
  8
0
  6
DURCHGEHEND
 62
           7
  5
2F5
 10
203.865921952899
 20
220.2233316245
 30
0.0
  0
VERTEX
  8
0
  6
DURCHGEHEND
 62
           7
  5
2F6
 10
203.771436738125
 20
220.177180475046
 30
0.0
  0
VERTEX
  8
0
  6
DURCHGEHEND
 62
           7
  5
2F7
 10
203.679439643694
 20
220.126028657076
 30
0.0
  0
VERTEX
  8
0
  6
DURCHGEHEND
 62
           7
  5
2F8
 10
203.590182827246
 20
220.070016374168
 30
0.0
  0
VERTEX
  8
0
  6
DURCHGEHEND
 62
           7
  5
2F9
 10
203.503910935512
 20
220.009297152095
 30
0.0
  0
VERTEX
  8
0
  6
DURCHGEHEND
 62
           7
  5
2FA
 10
203.42086043375
 20
219.944037418025
 30
0.0
  0
VERTEX
  8
0
  6
DURCHGEHEND
 62
           7
  5
2FB
 10
203.341258957612
 20
219.874416044352
 30
0.0
  0
VERTEX
  8
0
  6
DURCHGEHEND
 62
           7
  5
2FC
 10
203.265324689211
 20
219.800623858423
 30
0.0
  0
VERTEX
  8
0
  6
DURCHGEHEND
 62
           7
  5
2FD
 10
203.193265759099
 20
219.72286311949
 30
0.0
  0
VERTEX
  8
0
  6
DURCHGEHEND
 62
           7
  5
2FE
 10
203.125279675795
 20
219.641346964334
 30
0.0
  0
VERTEX
  8
0
  6
DURCHGEHEND
 62
           7
  5
2FF
 10
203.061552784428
 20
219.556298823069
 30
0.0
  0
VERTEX
  8
0
  6
DURCHGEHEND
 62
           7
  5
300
 10
203.002259755976
 20
219.467951806739
 30
0.0
  0
VERTEX
  8
0
  6
DURCHGEHEND
 62
           7
  5
301
 10
202.94756310851
 20
219.376548068375
 30
0.0
  0
VERTEX
  8
0
  6
DURCHGEHEND
 62
           7
  5
302
 10
202.897612761739
 20
219.28233813927
 30
0.0
  0
VERTEX
  8
0
  6
DURCHGEHEND
 62
           7
  5
303
 10
202.85254562609
 20
219.185580242292
 30
0.0
  0
VERTEX
  8
0
  6
DURCHGEHEND
 62
           7
  5
304
 10
202.812485227451
 20
219.08653958411
 30
0.0
  0
VERTEX
  8
0
  6
DURCHGEHEND
 62
           7
  5
305
 10
202.777541368588
 20
218.985487628285
 30
0.0
  0
VERTEX
  8
0
  6
DURCHGEHEND
 62
           7
  5
306
 10
202.747809828191
 20
218.882701351204
 30
0.0
  0
VERTEX
  8
0
  6
DURCHGEHEND
 62
           7
  5
307
 10
202.723372098346
 20
218.778462482906
 30
0.0
  0
VERTEX
  8
0
  6
DURCHGEHEND
 62
           7
  5
308
 10
202.70429516117
 20
218.673056734886
 30
0.0
  0
VERTEX
  8
0
  6
DURCHGEHEND
 62
           7
  5
309
 10
202.690631305222
 20
218.56677301697
 30
0.0
  0
VERTEX
  8
0
  6
DURCHGEHEND
 62
           7
  5
30A
 10
202.682417982183
 20
218.459902645444
 30
0.0
  0
VERTEX
  8
0
  6
DURCHGEHEND
 62
           7
  5
30B
 10
202.6796777042
 20
218.352738544565
 30
0.0
  0
VERTEX
  8
0
  6
DURCHGEHEND
 62
           7
  5
30C
 10
202.682417982183
 20
218.245574443687
 30
0.0
  0
VERTEX
  8
0
  6
DURCHGEHEND
 62
           7
  5
30D
 10
202.690631305222
 20
218.13870407216
 30
0.0
  0
VERTEX
  8
0
  6
DURCHGEHEND
 62
           7
  5
30E
 10
202.70429516117
 20
218.032420354245
 30
0.0
  0
VERTEX
  8
0
  6
DURCHGEHEND
 62
           7
  5
30F
 10
202.723372098346
 20
217.927014606224
 30
0.0
  0
VERTEX
  8
0
  6
DURCHGEHEND
 62
           7
  5
310
 10
202.747809828191
 20
217.822775737927
 30
0.0
  0
VERTEX
  8
0
  6
DURCHGEHEND
 62
           7
  5
311
 10
202.777541368588
 20
217.719989460845
 30
0.0
  0
VERTEX
  8
0
  6
DURCHGEHEND
 62
           7
  5
312
 10
202.812485227451
 20
217.61893750502
 30
0.0
  0
VERTEX
  8
0
  6
DURCHGEHEND
 62
           7
  5
313
 10
202.85254562609
 20
217.519896846839
 30
0.0
  0
VERTEX
  8
0
  6
DURCHGEHEND
 62
           7
  5
314
 10
202.897612761739
 20
217.42313894986
 30
0.0
  0
VERTEX
  8
0
  6
DURCHGEHEND
 62
           7
  5
315
 10
202.94756310851
 20
217.328929020756
 30
0.0
  0
VERTEX
  8
0
  6
DURCHGEHEND
 62
           7
  5
316
 10
203.002259755976
 20
217.237525282392
 30
0.0
  0
VERTEX
  8
0
  6
DURCHGEHEND
 62
           7
  5
317
 10
203.061552784428
 20
217.149178266062
 30
0.0
  0
VERTEX
  8
0
  6
DURCHGEHEND
 62
           7
  5
318
 10
203.125279675795
 20
217.064130124796
 30
0.0
  0
VERTEX
  8
0
  6
DURCHGEHEND
 62
           7
  5
319
 10
203.193265759099
 20
216.98261396964
 30
0.0
  0
VERTEX
  8
0
  6
DURCHGEHEND
 62
           7
  5
31A
 10
203.265324689211
 20
216.904853230707
 30
0.0
  0
VERTEX
  8
0
  6
DURCHGEHEND
 62
           7
  5
31B
 10
203.341258957612
 20
216.831061044778
 30
0.0
  0
VERTEX
  8
0
  6
DURCHGEHEND
 62
           7
  5
31C
 10
203.42086043375
 20
216.761439671106
 30
0.0
  0
VERTEX
  8
0
  6
DURCHGEHEND
 62
           7
  5
31D
 10
203.503910935512
 20
216.696179937036
 30
0.0
  0
VERTEX
  8
0
  6
DURCHGEHEND
 62
           7
  5
31E
 10
203.590182827246
 20
216.635460714963
 30
0.0
  0
VERTEX
  8
0
  6
DURCHGEHEND
 62
           7
  5
31F
 10
203.679439643694
 20
216.579448432054
 30
0.0
  0
VERTEX
  8
0
  6
DURCHGEHEND
 62
           7
  5
320
 10
203.771436738125
 20
216.528296614084
 30
0.0
  0
VERTEX
  8
0
  6
DURCHGEHEND
 62
           7
  5
321
 10
203.865921952899
 20
216.48214546463
 30
0.0
  0
VERTEX
  8
0
  6
DURCHGEHEND
 62
           7
  5
322
 10
203.962636310608
 20
216.441121480785
 30
0.0
  0
VERTEX
  8
0
  6
DURCHGEHEND
 62
           7
  5
323
 10
204.061314723922
 20
216.405337106437
 30
0.0
  0
VERTEX
  8
0
  6
DURCHGEHEND
 62
           7
  5
324
 10
204.161686722169
 20
216.374890424069
 30
0.0
  0
VERTEX
  8
0
  6
DURCHGEHEND
 62
           7
  5
325
 10
204.263477192677
 20
216.34986488592
 30
0.0
  0
VERTEX
  8
0
  6
DURCHGEHEND
 62
           7
  5
326
 10
204.366407134843
 20
216.330329085251
 30
0.0
  0
VERTEX
  8
0
  6
DURCHGEHEND
 62
           7
  5
327
 10
204.470194424851
 20
216.316336568335
 30
0.0
  0
VERTEX
  8
0
  6
DURCHGEHEND
 62
           7
  5
328
 10
204.574554588951
 20
216.307925687687
 30
0.0
  0
VERTEX
  8
0
  6
DURCHGEHEND
 62
           7
  5
329
 10
204.679201583188
 20
216.305119496946
 30
0.0
  0
VERTEX
  8
0
  6
DURCHGEHEND
 62
           7
  5
32A
 10
204.783848577426
 20
216.307925687687
 30
0.0
  0
VERTEX
  8
0
  6
DURCHGEHEND
 62
           7
  5
32B
 10
204.888208741526
 20
216.316336568335
 30
0.0
  0
VERTEX
  8
0
  6
DURCHGEHEND
 62
           7
  5
32C
 10
204.991996031533
 20
216.330329085251
 30
0.0
  0
VERTEX
  8
0
  6
DURCHGEHEND
 62
           7
  5
32D
 10
205.094925973699
 20
216.34986488592
 30
0.0
  0
VERTEX
  8
0
  6
DURCHGEHEND
 62
           7
  5
32E
 10
205.196716444208
 20
216.374890424069
 30
0.0
  0
VERTEX
  8
0
  6
DURCHGEHEND
 62
           7
  5
32F
 10
205.297088442454
 20
216.405337106437
 30
0.0
  0
VERTEX
  8
0
  6
DURCHGEHEND
 62
           7
  5
330
 10
205.395766855768
 20
216.441121480785
 30
0.0
  0
VERTEX
  8
0
  6
DURCHGEHEND
 62
           7
  5
331
 10
205.492481213478
 20
216.48214546463
 30
0.0
  0
VERTEX
  8
0
  6
DURCHGEHEND
 62
           7
  5
332
 10
205.586966428251
 20
216.528296614084
 30
0.0
  0
VERTEX
  8
0
  6
DURCHGEHEND
 62
           7
  5
333
 10
205.678963522683
 20
216.579448432054
 30
0.0
  0
VERTEX
  8
0
  6
DURCHGEHEND
 62
           7
  5
334
 10
205.76822033913
 20
216.635460714963
 30
0.0
  0
VERTEX
  8
0
  6
DURCHGEHEND
 62
           7
  5
335
 10
205.854492230864
 20
216.696179937036
 30
0.0
  0
VERTEX
  8
0
  6
DURCHGEHEND
 62
           7
  5
336
 10
205.937542732627
 20
216.761439671106
 30
0.0
  0
VERTEX
  8
0
  6
DURCHGEHEND
 62
           7
  5
337
 10
206.017144208765
 20
216.831061044778
 30
0.0
  0
VERTEX
  8
0
  6
DURCHGEHEND
 62
           7
  5
338
 10
206.093078477166
 20
216.904853230707
 30
0.0
  0
VERTEX
  8
0
  6
DURCHGEHEND
 62
           7
  5
339
 10
206.165137407277
 20
216.98261396964
 30
0.0
  0
VERTEX
  8
0
  6
DURCHGEHEND
 62
           7
  5
33A
 10
206.233123490581
 20
217.064130124796
 30
0.0
  0
VERTEX
  8
0
  6
DURCHGEHEND
 62
           7
  5
33B
 10
206.296850381949
 20
217.149178266062
 30
0.0
  0
VERTEX
  8
0
  6
DURCHGEHEND
 62
           7
  5
33C
 10
206.3561434104
 20
217.237525282392
 30
0.0
  0
VERTEX
  8
0
  6
DURCHGEHEND
 62
           7
  5
33D
 10
206.410840057866
 20
217.328929020756
 30
0.0
  0
VERTEX
  8
0
  6
DURCHGEHEND
 62
           7
  5
33E
 10
206.460790404638
 20
217.42313894986
 30
0.0
  0
VERTEX
  8
0
  6
DURCHGEHEND
 62
           7
  5
33F
 10
206.505857540286
 20
217.519896846839
 30
0.0
  0
VERTEX
  8
0
  6
DURCHGEHEND
 62
           7
  5
340
 10
206.545917938926
 20
217.61893750502
 30
0.0
  0
VERTEX
  8
0
  6
DURCHGEHEND
 62
           7
  5
341
 10
206.580861797788
 20
217.719989460845
 30
0.0
  0
VERTEX
  8
0
  6
DURCHGEHEND
 62
           7
  5
342
 10
206.610593338185
 20
217.822775737927
 30
0.0
  0
VERTEX
  8
0
  6
DURCHGEHEND
 62
           7
  5
343
 10
206.635031068031
 20
217.927014606224
 30
0.0
  0
VERTEX
  8
0
  6
DURCHGEHEND
 62
           7
  5
344
 10
206.654108005207
 20
218.032420354245
 30
0.0
  0
VERTEX
  8
0
  6
DURCHGEHEND
 62
           7
  5
345
 10
206.667771861154
 20
218.13870407216
 30
0.0
  0
VERTEX
  8
0
  6
DURCHGEHEND
 62
           7
  5
346
 10
206.675985184193
 20
218.245574443687
 30
0.0
  0
SEQEND
  8
0
  6
DURCHGEHEND
 62
           7
  5
347
  0
POLYLINE
  8
0
  6
DURCHGEHEND
 62
           7
  5
348
 66
           1
 10
0.0
 20
0.0
 30
0.0
 70
           1
1001
ACAD
1000
TCW40_DEV_WIDTH
1002
{
1040
-3.0
1002
}
  0
VERTEX
  8
0
  6
DURCHGEHEND
 62
           7
  5
349
 10
245.6796777042
 20
218.36464330647
 30
0.0
  0
VERTEX
  8
0
  6
DURCHGEHEND
 62
           7
  5
34A
 10
245.676937426216
 20
218.471807407348
 30
0.0
  0
VERTEX
  8
0
  6
DURCHGEHEND
 62
           7
  5
34B
 10
245.668724103177
 20
218.578677778875
 30
0.0
  0
VERTEX
  8
0
  6
DURCHGEHEND
 62
           7
  5
34C
 10
245.65506024723
 20
218.68496149679
 30
0.0
  0
VERTEX
  8
0
  6
DURCHGEHEND
 62
           7
  5
34D
 10
245.635983310054
 20
218.790367244811
 30
0.0
  0
VERTEX
  8
0
  6
DURCHGEHEND
 62
           7
  5
34E
 10
245.611545580208
 20
218.894606113108
 30
0.0
  0
VERTEX
  8
0
  6
DURCHGEHEND
 62
           7
  5
34F
 10
245.581814039811
 20
218.99739239019
 30
0.0
  0
VERTEX
  8
0
  6
DURCHGEHEND
 62
           7
  5
350
 10
245.546870180948
 20
219.098444346015
 30
0.0
  0
VERTEX
  8
0
  6
DURCHGEHEND
 62
           7
  5
351
 10
245.506809782309
 20
219.197485004197
 30
0.0
  0
VERTEX
  8
0
  6
DURCHGEHEND
 62
           7
  5
352
 10
245.46174264666
 20
219.294242901175
 30
0.0
  0
VERTEX
  8
0
  6
DURCHGEHEND
 62
           7
  5
353
 10
245.411792299889
 20
219.388452830279
 30
0.0
  0
VERTEX
  8
0
  6
DURCHGEHEND
 62
           7
  5
354
 10
245.357095652423
 20
219.479856568644
 30
0.0
  0
VERTEX
  8
0
  6
DURCHGEHEND
 62
           7
  5
355
 10
245.297802623971
 20
219.568203584974
 30
0.0
  0
VERTEX
  8
0
  6
DURCHGEHEND
 62
           7
  5
356
 10
245.234075732604
 20
219.653251726239
 30
0.0
  0
VERTEX
  8
0
  6
DURCHGEHEND
 62
           7
  5
357
 10
245.1660896493
 20
219.734767881395
 30
0.0
  0
VERTEX
  8
0
  6
DURCHGEHEND
 62
           7
  5
358
 10
245.094030719188
 20
219.812528620328
 30
0.0
  0
VERTEX
  8
0
  6
DURCHGEHEND
 62
           7
  5
359
 10
245.018096450788
 20
219.886320806257
 30
0.0
  0
VERTEX
  8
0
  6
DURCHGEHEND
 62
           7
  5
35A
 10
244.93849497465
 20
219.955942179929
 30
0.0
  0
VERTEX
  8
0
  6
DURCHGEHEND
 62
           7
  5
35B
 10
244.855444472887
 20
220.021201914
 30
0.0
  0
VERTEX
  8
0
  6
DURCHGEHEND
 62
           7
  5
35C
 10
244.769172581153
 20
220.081921136072
 30
0.0
  0
VERTEX
  8
0
  6
DURCHGEHEND
 62
           7
  5
35D
 10
244.679915764705
 20
220.137933418981
 30
0.0
  0
VERTEX
  8
0
  6
DURCHGEHEND
 62
           7
  5
35E
 10
244.587918670274
 20
220.189085236951
 30
0.0
  0
VERTEX
  8
0
  6
DURCHGEHEND
 62
           7
  5
35F
 10
244.493433455501
 20
220.235236386405
 30
0.0
  0
VERTEX
  8
0
  6
DURCHGEHEND
 62
           7
  5
360
 10
244.396719097791
 20
220.27626037025
 30
0.0
  0
VERTEX
  8
0
  6
DURCHGEHEND
 62
           7
  5
361
 10
244.298040684477
 20
220.312044744598
 30
0.0
  0
VERTEX
  8
0
  6
DURCHGEHEND
 62
           7
  5
362
 10
244.19766868623
 20
220.342491426967
 30
0.0
  0
VERTEX
  8
0
  6
DURCHGEHEND
 62
           7
  5
363
 10
244.095878215722
 20
220.367516965115
 30
0.0
  0
VERTEX
  8
0
  6
DURCHGEHEND
 62
           7
  5
364
 10
243.992948273556
 20
220.387052765784
 30
0.0
  0
VERTEX
  8
0
  6
DURCHGEHEND
 62
           7
  5
365
 10
243.889160983549
 20
220.4010452827
 30
0.0
  0
VERTEX
  8
0
  6
DURCHGEHEND
 62
           7
  5
366
 10
243.784800819448
 20
220.409456163348
 30
0.0
  0
VERTEX
  8
0
  6
DURCHGEHEND
 62
           7
  5
367
 10
243.680153825211
 20
220.412262354089
 30
0.0
  0
VERTEX
  8
0
  6
DURCHGEHEND
 62
           7
  5
368
 10
243.575506830973
 20
220.409456163348
 30
0.0
  0
VERTEX
  8
0
  6
DURCHGEHEND
 62
           7
  5
369
 10
243.471146666873
 20
220.4010452827
 30
0.0
  0
VERTEX
  8
0
  6
DURCHGEHEND
 62
           7
  5
36A
 10
243.367359376866
 20
220.387052765784
 30
0.0
  0
VERTEX
  8
0
  6
DURCHGEHEND
 62
           7
  5
36B
 10
243.2644294347
 20
220.367516965115
 30
0.0
  0
VERTEX
  8
0
  6
DURCHGEHEND
 62
           7
  5
36C
 10
243.162638964191
 20
220.342491426967
 30
0.0
  0
VERTEX
  8
0
  6
DURCHGEHEND
 62
           7
  5
36D
 10
243.062266965945
 20
220.312044744598
 30
0.0
  0
VERTEX
  8
0
  6
DURCHGEHEND
 62
           7
  5
36E
 10
242.963588552631
 20
220.27626037025
 30
0.0
  0
VERTEX
  8
0
  6
DURCHGEHEND
 62
           7
  5
36F
 10
242.866874194921
 20
220.235236386405
 30
0.0
  0
VERTEX
  8
0
  6
DURCHGEHEND
 62
           7
  5
370
 10
242.772388980148
 20
220.189085236951
 30
0.0
  0
VERTEX
  8
0
  6
DURCHGEHEND
 62
           7
  5
371
 10
242.680391885717
 20
220.137933418981
 30
0.0
  0
VERTEX
  8
0
  6
DURCHGEHEND
 62
           7
  5
372
 10
242.591135069269
 20
220.081921136072
 30
0.0
  0
VERTEX
  8
0
  6
DURCHGEHEND
 62
           7
  5
373
 10
242.504863177535
 20
220.021201914
 30
0.0
  0
VERTEX
  8
0
  6
DURCHGEHEND
 62
           7
  5
374
 10
242.421812675772
 20
219.955942179929
 30
0.0
  0
VERTEX
  8
0
  6
DURCHGEHEND
 62
           7
  5
375
 10
242.342211199634
 20
219.886320806257
 30
0.0
  0
VERTEX
  8
0
  6
DURCHGEHEND
 62
           7
  5
376
 10
242.266276931234
 20
219.812528620328
 30
0.0
  0
VERTEX
  8
0
  6
DURCHGEHEND
 62
           7
  5
377
 10
242.194218001122
 20
219.734767881395
 30
0.0
  0
VERTEX
  8
0
  6
DURCHGEHEND
 62
           7
  5
378
 10
242.126231917818
 20
219.653251726239
 30
0.0
  0
VERTEX
  8
0
  6
DURCHGEHEND
 62
           7
  5
379
 10
242.062505026451
 20
219.568203584974
 30
0.0
  0
VERTEX
  8
0
  6
DURCHGEHEND
 62
           7
  5
37A
 10
242.003211997999
 20
219.479856568644
 30
0.0
  0
VERTEX
  8
0
  6
DURCHGEHEND
 62
           7
  5
37B
 10
241.948515350533
 20
219.388452830279
 30
0.0
  0
VERTEX
  8
0
  6
DURCHGEHEND
 62
           7
  5
37C
 10
241.898565003762
 20
219.294242901175
 30
0.0
  0
VERTEX
  8
0
  6
DURCHGEHEND
 62
           7
  5
37D
 10
241.853497868113
 20
219.197485004197
 30
0.0
  0
VERTEX
  8
0
  6
DURCHGEHEND
 62
           7
  5
37E
 10
241.813437469473
 20
219.098444346015
 30
0.0
  0
VERTEX
  8
0
  6
DURCHGEHEND
 62
           7
  5
37F
 10
241.778493610611
 20
218.99739239019
 30
0.0
  0
VERTEX
  8
0
  6
DURCHGEHEND
 62
           7
  5
380
 10
241.748762070214
 20
218.894606113108
 30
0.0
  0
VERTEX
  8
0
  6
DURCHGEHEND
 62
           7
  5
381
 10
241.724324340368
 20
218.790367244811
 30
0.0
  0
VERTEX
  8
0
  6
DURCHGEHEND
 62
           7
  5
382
 10
241.705247403192
 20
218.68496149679
 30
0.0
  0
VERTEX
  8
0
  6
DURCHGEHEND
 62
           7
  5
383
 10
241.691583547245
 20
218.578677778875
 30
0.0
  0
VERTEX
  8
0
  6
DURCHGEHEND
 62
           7
  5
384
 10
241.683370224206
 20
218.471807407348
 30
0.0
  0
VERTEX
  8
0
  6
DURCHGEHEND
 62
           7
  5
385
 10
241.680629946222
 20
218.36464330647
 30
0.0
  0
VERTEX
  8
0
  6
DURCHGEHEND
 62
           7
  5
386
 10
241.683370224206
 20
218.257479205592
 30
0.0
  0
VERTEX
  8
0
  6
DURCHGEHEND
 62
           7
  5
387
 10
241.691583547245
 20
218.150608834065
 30
0.0
  0
VERTEX
  8
0
  6
DURCHGEHEND
 62
           7
  5
388
 10
241.705247403192
 20
218.044325116149
 30
0.0
  0
VERTEX
  8
0
  6
DURCHGEHEND
 62
           7
  5
389
 10
241.724324340368
 20
217.938919368129
 30
0.0
  0
VERTEX
  8
0
  6
DURCHGEHEND
 62
           7
  5
38A
 10
241.748762070214
 20
217.834680499831
 30
0.0
  0
VERTEX
  8
0
  6
DURCHGEHEND
 62
           7
  5
38B
 10
241.778493610611
 20
217.73189422275
 30
0.0
  0
VERTEX
  8
0
  6
DURCHGEHEND
 62
           7
  5
38C
 10
241.813437469473
 20
217.630842266925
 30
0.0
  0
VERTEX
  8
0
  6
DURCHGEHEND
 62
           7
  5
38D
 10
241.853497868113
 20
217.531801608743
 30
0.0
  0
VERTEX
  8
0
  6
DURCHGEHEND
 62
           7
  5
38E
 10
241.898565003762
 20
217.435043711765
 30
0.0
  0
VERTEX
  8
0
  6
DURCHGEHEND
 62
           7
  5
38F
 10
241.948515350533
 20
217.34083378266
 30
0.0
  0
VERTEX
  8
0
  6
DURCHGEHEND
 62
           7
  5
390
 10
242.003211997999
 20
217.249430044296
 30
0.0
  0
VERTEX
  8
0
  6
DURCHGEHEND
 62
           7
  5
391
 10
242.062505026451
 20
217.161083027966
 30
0.0
  0
VERTEX
  8
0
  6
DURCHGEHEND
 62
           7
  5
392
 10
242.126231917818
 20
217.076034886701
 30
0.0
  0
VERTEX
  8
0
  6
DURCHGEHEND
 62
           7
  5
393
 10
242.194218001122
 20
216.994518731545
 30
0.0
  0
VERTEX
  8
0
  6
DURCHGEHEND
 62
           7
  5
394
 10
242.266276931234
 20
216.916757992612
 30
0.0
  0
VERTEX
  8
0
  6
DURCHGEHEND
 62
           7
  5
395
 10
242.342211199634
 20
216.842965806683
 30
0.0
  0
VERTEX
  8
0
  6
DURCHGEHEND
 62
           7
  5
396
 10
242.421812675772
 20
216.77334443301
 30
0.0
  0
VERTEX
  8
0
  6
DURCHGEHEND
 62
           7
  5
397
 10
242.504863177535
 20
216.70808469894
 30
0.0
  0
VERTEX
  8
0
  6
DURCHGEHEND
 62
           7
  5
398
 10
242.591135069269
 20
216.647365476867
 30
0.0
  0
VERTEX
  8
0
  6
DURCHGEHEND
 62
           7
  5
399
 10
242.680391885717
 20
216.591353193959
 30
0.0
  0
VERTEX
  8
0
  6
DURCHGEHEND
 62
           7
  5
39A
 10
242.772388980148
 20
216.540201375989
 30
0.0
  0
VERTEX
  8
0
  6
DURCHGEHEND
 62
           7
  5
39B
 10
242.866874194921
 20
216.494050226535
 30
0.0
  0
VERTEX
  8
0
  6
DURCHGEHEND
 62
           7
  5
39C
 10
242.963588552631
 20
216.45302624269
 30
0.0
  0
VERTEX
  8
0
  6
DURCHGEHEND
 62
           7
  5
39D
 10
243.062266965945
 20
216.417241868342
 30
0.0
  0
VERTEX
  8
0
  6
DURCHGEHEND
 62
           7
  5
39E
 10
243.162638964191
 20
216.386795185973
 30
0.0
  0
VERTEX
  8
0
  6
DURCHGEHEND
 62
           7
  5
39F
 10
243.2644294347
 20
216.361769647825
 30
0.0
  0
VERTEX
  8
0
  6
DURCHGEHEND
 62
           7
  5
3A0
 10
243.367359376866
 20
216.342233847156
 30
0.0
  0
VERTEX
  8
0
  6
DURCHGEHEND
 62
           7
  5
3A1
 10
243.471146666873
 20
216.32824133024
 30
0.0
  0
VERTEX
  8
0
  6
DURCHGEHEND
 62
           7
  5
3A2
 10
243.575506830973
 20
216.319830449592
 30
0.0
  0
VERTEX
  8
0
  6
DURCHGEHEND
 62
           7
  5
3A3
 10
243.680153825211
 20
216.317024258851
 30
0.0
  0
VERTEX
  8
0
  6
DURCHGEHEND
 62
           7
  5
3A4
 10
243.784800819448
 20
216.319830449592
 30
0.0
  0
VERTEX
  8
0
  6
DURCHGEHEND
 62
           7
  5
3A5
 10
243.889160983549
 20
216.32824133024
 30
0.0
  0
VERTEX
  8
0
  6
DURCHGEHEND
 62
           7
  5
3A6
 10
243.992948273556
 20
216.342233847156
 30
0.0
  0
VERTEX
  8
0
  6
DURCHGEHEND
 62
           7
  5
3A7
 10
244.095878215722
 20
216.361769647825
 30
0.0
  0
VERTEX
  8
0
  6
DURCHGEHEND
 62
           7
  5
3A8
 10
244.19766868623
 20
216.386795185973
 30
0.0
  0
VERTEX
  8
0
  6
DURCHGEHEND
 62
           7
  5
3A9
 10
244.298040684477
 20
216.417241868342
 30
0.0
  0
VERTEX
  8
0
  6
DURCHGEHEND
 62
           7
  5
3AA
 10
244.396719097791
 20
216.45302624269
 30
0.0
  0
VERTEX
  8
0
  6
DURCHGEHEND
 62
           7
  5
3AB
 10
244.493433455501
 20
216.494050226535
 30
0.0
  0
VERTEX
  8
0
  6
DURCHGEHEND
 62
           7
  5
3AC
 10
244.587918670274
 20
216.540201375989
 30
0.0
  0
VERTEX
  8
0
  6
DURCHGEHEND
 62
           7
  5
3AD
 10
244.679915764705
 20
216.591353193959
 30
0.0
  0
VERTEX
  8
0
  6
DURCHGEHEND
 62
           7
  5
3AE
 10
244.769172581153
 20
216.647365476867
 30
0.0
  0
VERTEX
  8
0
  6
DURCHGEHEND
 62
           7
  5
3AF
 10
244.855444472887
 20
216.70808469894
 30
0.0
  0
VERTEX
  8
0
  6
DURCHGEHEND
 62
           7
  5
3B0
 10
244.93849497465
 20
216.77334443301
 30
0.0
  0
VERTEX
  8
0
  6
DURCHGEHEND
 62
           7
  5
3B1
 10
245.018096450788
 20
216.842965806683
 30
0.0
  0
VERTEX
  8
0
  6
DURCHGEHEND
 62
           7
  5
3B2
 10
245.094030719188
 20
216.916757992612
 30
0.0
  0
VERTEX
  8
0
  6
DURCHGEHEND
 62
           7
  5
3B3
 10
245.1660896493
 20
216.994518731545
 30
0.0
  0
VERTEX
  8
0
  6
DURCHGEHEND
 62
           7
  5
3B4
 10
245.234075732604
 20
217.076034886701
 30
0.0
  0
VERTEX
  8
0
  6
DURCHGEHEND
 62
           7
  5
3B5
 10
245.297802623971
 20
217.161083027966
 30
0.0
  0
VERTEX
  8
0
  6
DURCHGEHEND
 62
           7
  5
3B6
 10
245.357095652423
 20
217.249430044296
 30
0.0
  0
VERTEX
  8
0
  6
DURCHGEHEND
 62
           7
  5
3B7
 10
245.411792299889
 20
217.34083378266
 30
0.0
  0
VERTEX
  8
0
  6
DURCHGEHEND
 62
           7
  5
3B8
 10
245.46174264666
 20
217.435043711765
 30
0.0
  0
VERTEX
  8
0
  6
DURCHGEHEND
 62
           7
  5
3B9
 10
245.506809782309
 20
217.531801608743
 30
0.0
  0
VERTEX
  8
0
  6
DURCHGEHEND
 62
           7
  5
3BA
 10
245.546870180948
 20
217.630842266925
 30
0.0
  0
VERTEX
  8
0
  6
DURCHGEHEND
 62
           7
  5
3BB
 10
245.581814039811
 20
217.73189422275
 30
0.0
  0
VERTEX
  8
0
  6
DURCHGEHEND
 62
           7
  5
3BC
 10
245.611545580208
 20
217.834680499831
 30
0.0
  0
VERTEX
  8
0
  6
DURCHGEHEND
 62
           7
  5
3BD
 10
245.635983310054
 20
217.938919368129
 30
0.0
  0
VERTEX
  8
0
  6
DURCHGEHEND
 62
           7
  5
3BE
 10
245.65506024723
 20
218.044325116149
 30
0.0
  0
VERTEX
  8
0
  6
DURCHGEHEND
 62
           7
  5
3BF
 10
245.668724103177
 20
218.150608834065
 30
0.0
  0
VERTEX
  8
0
  6
DURCHGEHEND
 62
           7
  5
3C0
 10
245.676937426216
 20
218.257479205592
 30
0.0
  0
SEQEND
  8
0
  6
DURCHGEHEND
 62
           7
  5
3C1
  0
POLYLINE
  8
0
  6
DURCHGEHEND
 62
           7
  5
3C2
 66
           1
 10
0.0
 20
0.0
 30
0.0
 70
           1
1001
ACAD
1000
TCW40_DEV_WIDTH
1002
{
1040
-3.0
1002
}
  0
VERTEX
  8
0
  6
DURCHGEHEND
 62
           7
  5
3C3
 10
206.678726680932
 20
179.447976639803
 30
0.0
  0
VERTEX
  8
0
  6
DURCHGEHEND
 62
           7
  5
3C4
 10
206.675986402949
 20
179.555140740682
 30
0.0
  0
VERTEX
  8
0
  6
DURCHGEHEND
 62
           7
  5
3C5
 10
206.66777307991
 20
179.662011112208
 30
0.0
  0
VERTEX
  8
0
  6
DURCHGEHEND
 62
           7
  5
3C6
 10
206.654109223962
 20
179.768294830124
 30
0.0
  0
VERTEX
  8
0
  6
DURCHGEHEND
 62
           7
  5
3C7
 10
206.635032286786
 20
179.873700578144
 30
0.0
  0
VERTEX
  8
0
  6
DURCHGEHEND
 62
           7
  5
3C8
 10
206.610594556941
 20
179.977939446442
 30
0.0
  0
VERTEX
  8
0
  6
DURCHGEHEND
 62
           7
  5
3C9
 10
206.580863016544
 20
180.080725723523
 30
0.0
  0
VERTEX
  8
0
  6
DURCHGEHEND
 62
           7
  5
3CA
 10
206.545919157681
 20
180.181777679348
 30
0.0
  0
VERTEX
  8
0
  6
DURCHGEHEND
 62
           7
  5
3CB
 10
206.505858759042
 20
180.28081833753
 30
0.0
  0
VERTEX
  8
0
  6
DURCHGEHEND
 62
           7
  5
3CC
 10
206.460791623393
 20
180.377576234508
 30
0.0
  0
VERTEX
  8
0
  6
DURCHGEHEND
 62
           7
  5
3CD
 10
206.410841276622
 20
180.471786163613
 30
0.0
  0
VERTEX
  8
0
  6
DURCHGEHEND
 62
           7
  5
3CE
 10
206.356144629156
 20
180.563189901977
 30
0.0
  0
VERTEX
  8
0
  6
DURCHGEHEND
 62
           7
  5
3CF
 10
206.296851600704
 20
180.651536918307
 30
0.0
  0
VERTEX
  8
0
  6
DURCHGEHEND
 62
           7
  5
3D0
 10
206.233124709337
 20
180.736585059572
 30
0.0
  0
VERTEX
  8
0
  6
DURCHGEHEND
 62
           7
  5
3D1
 10
206.165138626033
 20
180.818101214729
 30
0.0
  0
VERTEX
  8
0
  6
DURCHGEHEND
 62
           7
  5
3D2
 10
206.093079695921
 20
180.895861953661
 30
0.0
  0
VERTEX
  8
0
  6
DURCHGEHEND
 62
           7
  5
3D3
 10
206.01714542752
 20
180.96965413959
 30
0.0
  0
VERTEX
  8
0
  6
DURCHGEHEND
 62
           7
  5
3D4
 10
205.937543951382
 20
181.039275513263
 30
0.0
  0
VERTEX
  8
0
  6
DURCHGEHEND
 62
           7
  5
3D5
 10
205.85449344962
 20
181.104535247333
 30
0.0
  0
VERTEX
  8
0
  6
DURCHGEHEND
 62
           7
  5
3D6
 10
205.768221557886
 20
181.165254469406
 30
0.0
  0
VERTEX
  8
0
  6
DURCHGEHEND
 62
           7
  5
3D7
 10
205.678964741438
 20
181.221266752314
 30
0.0
  0
VERTEX
  8
0
  6
DURCHGEHEND
 62
           7
  5
3D8
 10
205.586967647007
 20
181.272418570284
 30
0.0
  0
VERTEX
  8
0
  6
DURCHGEHEND
 62
           7
  5
3D9
 10
205.492482432233
 20
181.318569719738
 30
0.0
  0
VERTEX
  8
0
  6
DURCHGEHEND
 62
           7
  5
3DA
 10
205.395768074524
 20
181.359593703583
 30
0.0
  0
VERTEX
  8
0
  6
DURCHGEHEND
 62
           7
  5
3DB
 10
205.29708966121
 20
181.395378077931
 30
0.0
  0
VERTEX
  8
0
  6
DURCHGEHEND
 62
           7
  5
3DC
 10
205.196717662963
 20
181.4258247603
 30
0.0
  0
VERTEX
  8
0
  6
DURCHGEHEND
 62
           7
  5
3DD
 10
205.094927192455
 20
181.450850298449
 30
0.0
  0
VERTEX
  8
0
  6
DURCHGEHEND
 62
           7
  5
3DE
 10
204.991997250288
 20
181.470386099117
 30
0.0
  0
VERTEX
  8
0
  6
DURCHGEHEND
 62
           7
  5
3DF
 10
204.888209960281
 20
181.484378616034
 30
0.0
  0
VERTEX
  8
0
  6
DURCHGEHEND
 62
           7
  5
3E0
 10
204.783849796181
 20
181.492789496682
 30
0.0
  0
VERTEX
  8
0
  6
DURCHGEHEND
 62
           7
  5
3E1
 10
204.679202801944
 20
181.495595687422
 30
0.0
  0
VERTEX
  8
0
  6
DURCHGEHEND
 62
           7
  5
3E2
 10
204.574555807706
 20
181.492789496682
 30
0.0
  0
VERTEX
  8
0
  6
DURCHGEHEND
 62
           7
  5
3E3
 10
204.470195643606
 20
181.484378616034
 30
0.0
  0
VERTEX
  8
0
  6
DURCHGEHEND
 62
           7
  5
3E4
 10
204.366408353599
 20
181.470386099117
 30
0.0
  0
VERTEX
  8
0
  6
DURCHGEHEND
 62
           7
  5
3E5
 10
204.263478411433
 20
181.450850298449
 30
0.0
  0
VERTEX
  8
0
  6
DURCHGEHEND
 62
           7
  5
3E6
 10
204.161687940924
 20
181.4258247603
 30
0.0
  0
VERTEX
  8
0
  6
DURCHGEHEND
 62
           7
  5
3E7
 10
204.061315942678
 20
181.395378077931
 30
0.0
  0
VERTEX
  8
0
  6
DURCHGEHEND
 62
           7
  5
3E8
 10
203.962637529364
 20
181.359593703583
 30
0.0
  0
VERTEX
  8
0
  6
DURCHGEHEND
 62
           7
  5
3E9
 10
203.865923171654
 20
181.318569719738
 30
0.0
  0
VERTEX
  8
0
  6
DURCHGEHEND
 62
           7
  5
3EA
 10
203.771437956881
 20
181.272418570284
 30
0.0
  0
VERTEX
  8
0
  6
DURCHGEHEND
 62
           7
  5
3EB
 10
203.679440862449
 20
181.221266752314
 30
0.0
  0
VERTEX
  8
0
  6
DURCHGEHEND
 62
           7
  5
3EC
 10
203.590184046002
 20
181.165254469406
 30
0.0
  0
VERTEX
  8
0
  6
DURCHGEHEND
 62
           7
  5
3ED
 10
203.503912154268
 20
181.104535247333
 30
0.0
  0
VERTEX
  8
0
  6
DURCHGEHEND
 62
           7
  5
3EE
 10
203.420861652505
 20
181.039275513263
 30
0.0
  0
VERTEX
  8
0
  6
DURCHGEHEND
 62
           7
  5
3EF
 10
203.341260176367
 20
180.96965413959
 30
0.0
  0
VERTEX
  8
0
  6
DURCHGEHEND
 62
           7
  5
3F0
 10
203.265325907966
 20
180.895861953661
 30
0.0
  0
VERTEX
  8
0
  6
DURCHGEHEND
 62
           7
  5
3F1
 10
203.193266977855
 20
180.818101214729
 30
0.0
  0
VERTEX
  8
0
  6
DURCHGEHEND
 62
           7
  5
3F2
 10
203.125280894551
 20
180.736585059572
 30
0.0
  0
VERTEX
  8
0
  6
DURCHGEHEND
 62
           7
  5
3F3
 10
203.061554003183
 20
180.651536918307
 30
0.0
  0
VERTEX
  8
0
  6
DURCHGEHEND
 62
           7
  5
3F4
 10
203.002260974732
 20
180.563189901977
 30
0.0
  0
VERTEX
  8
0
  6
DURCHGEHEND
 62
           7
  5
3F5
 10
202.947564327266
 20
180.471786163613
 30
0.0
  0
VERTEX
  8
0
  6
DURCHGEHEND
 62
           7
  5
3F6
 10
202.897613980494
 20
180.377576234508
 30
0.0
  0
VERTEX
  8
0
  6
DURCHGEHEND
 62
           7
  5
3F7
 10
202.852546844846
 20
180.28081833753
 30
0.0
  0
VERTEX
  8
0
  6
DURCHGEHEND
 62
           7
  5
3F8
 10
202.812486446206
 20
180.181777679348
 30
0.0
  0
VERTEX
  8
0
  6
DURCHGEHEND
 62
           7
  5
3F9
 10
202.777542587344
 20
180.080725723523
 30
0.0
  0
VERTEX
  8
0
  6
DURCHGEHEND
 62
           7
  5
3FA
 10
202.747811046947
 20
179.977939446442
 30
0.0
  0
VERTEX
  8
0
  6
DURCHGEHEND
 62
           7
  5
3FB
 10
202.723373317101
 20
179.873700578144
 30
0.0
  0
VERTEX
  8
0
  6
DURCHGEHEND
 62
           7
  5
3FC
 10
202.704296379925
 20
179.768294830124
 30
0.0
  0
VERTEX
  8
0
  6
DURCHGEHEND
 62
           7
  5
3FD
 10
202.690632523978
 20
179.662011112208
 30
0.0
  0
VERTEX
  8
0
  6
DURCHGEHEND
 62
           7
  5
3FE
 10
202.682419200939
 20
179.555140740682
 30
0.0
  0
VERTEX
  8
0
  6
DURCHGEHEND
 62
           7
  5
3FF
 10
202.679678922955
 20
179.447976639803
 30
0.0
  0
VERTEX
  8
0
  6
DURCHGEHEND
 62
           7
  5
400
 10
202.682419200939
 20
179.340812538925
 30
0.0
  0
VERTEX
  8
0
  6
DURCHGEHEND
 62
           7
  5
401
 10
202.690632523978
 20
179.233942167398
 30
0.0
  0
VERTEX
  8
0
  6
DURCHGEHEND
 62
           7
  5
402
 10
202.704296379925
 20
179.127658449483
 30
0.0
  0
VERTEX
  8
0
  6
DURCHGEHEND
 62
           7
  5
403
 10
202.723373317101
 20
179.022252701462
 30
0.0
  0
VERTEX
  8
0
  6
DURCHGEHEND
 62
           7
  5
404
 10
202.747811046947
 20
178.918013833165
 30
0.0
  0
VERTEX
  8
0
  6
DURCHGEHEND
 62
           7
  5
405
 10
202.777542587344
 20
178.815227556083
 30
0.0
  0
VERTEX
  8
0
  6
DURCHGEHEND
 62
           7
  5
406
 10
202.812486446206
 20
178.714175600258
 30
0.0
  0
VERTEX
  8
0
  6
DURCHGEHEND
 62
           7
  5
407
 10
202.852546844846
 20
178.615134942077
 30
0.0
  0
VERTEX
  8
0
  6
DURCHGEHEND
 62
           7
  5
408
 10
202.897613980494
 20
178.518377045099
 30
0.0
  0
VERTEX
  8
0
  6
DURCHGEHEND
 62
           7
  5
409
 10
202.947564327266
 20
178.424167115994
 30
0.0
  0
VERTEX
  8
0
  6
DURCHGEHEND
 62
           7
  5
40A
 10
203.002260974732
 20
178.33276337763
 30
0.0
  0
VERTEX
  8
0
  6
DURCHGEHEND
 62
           7
  5
40B
 10
203.061554003183
 20
178.2444163613
 30
0.0
  0
VERTEX
  8
0
  6
DURCHGEHEND
 62
           7
  5
40C
 10
203.125280894551
 20
178.159368220035
 30
0.0
  0
VERTEX
  8
0
  6
DURCHGEHEND
 62
           7
  5
40D
 10
203.193266977855
 20
178.077852064878
 30
0.0
  0
VERTEX
  8
0
  6
DURCHGEHEND
 62
           7
  5
40E
 10
203.265325907966
 20
178.000091325945
 30
0.0
  0
VERTEX
  8
0
  6
DURCHGEHEND
 62
           7
  5
40F
 10
203.341260176367
 20
177.926299140016
 30
0.0
  0
VERTEX
  8
0
  6
DURCHGEHEND
 62
           7
  5
410
 10
203.420861652505
 20
177.856677766344
 30
0.0
  0
VERTEX
  8
0
  6
DURCHGEHEND
 62
           7
  5
411
 10
203.503912154268
 20
177.791418032274
 30
0.0
  0
VERTEX
  8
0
  6
DURCHGEHEND
 62
           7
  5
412
 10
203.590184046002
 20
177.730698810201
 30
0.0
  0
VERTEX
  8
0
  6
DURCHGEHEND
 62
           7
  5
413
 10
203.679440862449
 20
177.674686527292
 30
0.0
  0
VERTEX
  8
0
  6
DURCHGEHEND
 62
           7
  5
414
 10
203.771437956881
 20
177.623534709322
 30
0.0
  0
VERTEX
  8
0
  6
DURCHGEHEND
 62
           7
  5
415
 10
203.865923171654
 20
177.577383559868
 30
0.0
  0
VERTEX
  8
0
  6
DURCHGEHEND
 62
           7
  5
416
 10
203.962637529364
 20
177.536359576023
 30
0.0
  0
VERTEX
  8
0
  6
DURCHGEHEND
 62
           7
  5
417
 10
204.061315942678
 20
177.500575201675
 30
0.0
  0
VERTEX
  8
0
  6
DURCHGEHEND
 62
           7
  5
418
 10
204.161687940924
 20
177.470128519307
 30
0.0
  0
VERTEX
  8
0
  6
DURCHGEHEND
 62
           7
  5
419
 10
204.263478411433
 20
177.445102981158
 30
0.0
  0
VERTEX
  8
0
  6
DURCHGEHEND
 62
           7
  5
41A
 10
204.366408353599
 20
177.425567180489
 30
0.0
  0
VERTEX
  8
0
  6
DURCHGEHEND
 62
           7
  5
41B
 10
204.470195643606
 20
177.411574663573
 30
0.0
  0
VERTEX
  8
0
  6
DURCHGEHEND
 62
           7
  5
41C
 10
204.574555807706
 20
177.403163782925
 30
0.0
  0
VERTEX
  8
0
  6
DURCHGEHEND
 62
           7
  5
41D
 10
204.679202801944
 20
177.400357592184
 30
0.0
  0
VERTEX
  8
0
  6
DURCHGEHEND
 62
           7
  5
41E
 10
204.783849796181
 20
177.403163782925
 30
0.0
  0
VERTEX
  8
0
  6
DURCHGEHEND
 62
           7
  5
41F
 10
204.888209960281
 20
177.411574663573
 30
0.0
  0
VERTEX
  8
0
  6
DURCHGEHEND
 62
           7
  5
420
 10
204.991997250288
 20
177.425567180489
 30
0.0
  0
VERTEX
  8
0
  6
DURCHGEHEND
 62
           7
  5
421
 10
205.094927192455
 20
177.445102981158
 30
0.0
  0
VERTEX
  8
0
  6
DURCHGEHEND
 62
           7
  5
422
 10
205.196717662963
 20
177.470128519307
 30
0.0
  0
VERTEX
  8
0
  6
DURCHGEHEND
 62
           7
  5
423
 10
205.29708966121
 20
177.500575201675
 30
0.0
  0
VERTEX
  8
0
  6
DURCHGEHEND
 62
           7
  5
424
 10
205.395768074524
 20
177.536359576023
 30
0.0
  0
VERTEX
  8
0
  6
DURCHGEHEND
 62
           7
  5
425
 10
205.492482432233
 20
177.577383559868
 30
0.0
  0
VERTEX
  8
0
  6
DURCHGEHEND
 62
           7
  5
426
 10
205.586967647007
 20
177.623534709322
 30
0.0
  0
VERTEX
  8
0
  6
DURCHGEHEND
 62
           7
  5
427
 10
205.678964741438
 20
177.674686527292
 30
0.0
  0
VERTEX
  8
0
  6
DURCHGEHEND
 62
           7
  5
428
 10
205.768221557886
 20
177.730698810201
 30
0.0
  0
VERTEX
  8
0
  6
DURCHGEHEND
 62
           7
  5
429
 10
205.85449344962
 20
177.791418032274
 30
0.0
  0
VERTEX
  8
0
  6
DURCHGEHEND
 62
           7
  5
42A
 10
205.937543951382
 20
177.856677766344
 30
0.0
  0
VERTEX
  8
0
  6
DURCHGEHEND
 62
           7
  5
42B
 10
206.01714542752
 20
177.926299140016
 30
0.0
  0
VERTEX
  8
0
  6
DURCHGEHEND
 62
           7
  5
42C
 10
206.093079695921
 20
178.000091325945
 30
0.0
  0
VERTEX
  8
0
  6
DURCHGEHEND
 62
           7
  5
42D
 10
206.165138626033
 20
178.077852064878
 30
0.0
  0
VERTEX
  8
0
  6
DURCHGEHEND
 62
           7
  5
42E
 10
206.233124709337
 20
178.159368220035
 30
0.0
  0
VERTEX
  8
0
  6
DURCHGEHEND
 62
           7
  5
42F
 10
206.296851600704
 20
178.2444163613
 30
0.0
  0
VERTEX
  8
0
  6
DURCHGEHEND
 62
           7
  5
430
 10
206.356144629156
 20
178.33276337763
 30
0.0
  0
VERTEX
  8
0
  6
DURCHGEHEND
 62
           7
  5
431
 10
206.410841276622
 20
178.424167115994
 30
0.0
  0
VERTEX
  8
0
  6
DURCHGEHEND
 62
           7
  5
432
 10
206.460791623393
 20
178.518377045099
 30
0.0
  0
VERTEX
  8
0
  6
DURCHGEHEND
 62
           7
  5
433
 10
206.505858759042
 20
178.615134942077
 30
0.0
  0
VERTEX
  8
0
  6
DURCHGEHEND
 62
           7
  5
434
 10
206.545919157681
 20
178.714175600258
 30
0.0
  0
VERTEX
  8
0
  6
DURCHGEHEND
 62
           7
  5
435
 10
206.580863016544
 20
178.815227556083
 30
0.0
  0
VERTEX
  8
0
  6
DURCHGEHEND
 62
           7
  5
436
 10
206.610594556941
 20
178.918013833165
 30
0.0
  0
VERTEX
  8
0
  6
DURCHGEHEND
 62
           7
  5
437
 10
206.635032286786
 20
179.022252701462
 30
0.0
  0
VERTEX
  8
0
  6
DURCHGEHEND
 62
           7
  5
438
 10
206.654109223962
 20
179.127658449483
 30
0.0
  0
VERTEX
  8
0
  6
DURCHGEHEND
 62
           7
  5
439
 10
206.66777307991
 20
179.233942167398
 30
0.0
  0
VERTEX
  8
0
  6
DURCHGEHEND
 62
           7
  5
43A
 10
206.675986402949
 20
179.340812538925
 30
0.0
  0
SEQEND
  8
0
  6
DURCHGEHEND
 62
           7
  5
43B
  0
POLYLINE
  8
0
  6
DURCHGEHEND
 62
           7
  5
43C
 66
           1
 10
0.0
 20
0.0
 30
0.0
 70
           1
1001
ACAD
1000
TCW40_DEV_WIDTH
1002
{
1040
-3.0
1002
}
  0
VERTEX
  8
0
  6
DURCHGEHEND
 62
           7
  5
43D
 10
245.679678922955
 20
179.459881401708
 30
0.0
  0
VERTEX
  8
0
  6
DURCHGEHEND
 62
           7
  5
43E
 10
245.676938644972
 20
179.567045502586
 30
0.0
  0
VERTEX
  8
0
  6
DURCHGEHEND
 62
           7
  5
43F
 10
245.668725321932
 20
179.673915874113
 30
0.0
  0
VERTEX
  8
0
  6
DURCHGEHEND
 62
           7
  5
440
 10
245.655061465985
 20
179.780199592029
 30
0.0
  0
VERTEX
  8
0
  6
DURCHGEHEND
 62
           7
  5
441
 10
245.635984528809
 20
179.885605340049
 30
0.0
  0
VERTEX
  8
0
  6
DURCHGEHEND
 62
           7
  5
442
 10
245.611546798963
 20
179.989844208347
 30
0.0
  0
VERTEX
  8
0
  6
DURCHGEHEND
 62
           7
  5
443
 10
245.581815258566
 20
180.092630485428
 30
0.0
  0
VERTEX
  8
0
  6
DURCHGEHEND
 62
           7
  5
444
 10
245.546871399704
 20
180.193682441253
 30
0.0
  0
VERTEX
  8
0
  6
DURCHGEHEND
 62
           7
  5
445
 10
245.506811001064
 20
180.292723099435
 30
0.0
  0
VERTEX
  8
0
  6
DURCHGEHEND
 62
           7
  5
446
 10
245.461743865416
 20
180.389480996413
 30
0.0
  0
VERTEX
  8
0
  6
DURCHGEHEND
 62
           7
  5
447
 10
245.411793518644
 20
180.483690925518
 30
0.0
  0
VERTEX
  8
0
  6
DURCHGEHEND
 62
           7
  5
448
 10
245.357096871178
 20
180.575094663882
 30
0.0
  0
VERTEX
  8
0
  6
DURCHGEHEND
 62
           7
  5
449
 10
245.297803842727
 20
180.663441680212
 30
0.0
  0
VERTEX
  8
0
  6
DURCHGEHEND
 62
           7
  5
44A
 10
245.234076951359
 20
180.748489821477
 30
0.0
  0
VERTEX
  8
0
  6
DURCHGEHEND
 62
           7
  5
44B
 10
245.166090868055
 20
180.830005976633
 30
0.0
  0
VERTEX
  8
0
  6
DURCHGEHEND
 62
           7
  5
44C
 10
245.094031937944
 20
180.907766715566
 30
0.0
  0
VERTEX
  8
0
  6
DURCHGEHEND
 62
           7
  5
44D
 10
245.018097669543
 20
180.981558901495
 30
0.0
  0
VERTEX
  8
0
  6
DURCHGEHEND
 62
           7
  5
44E
 10
244.938496193405
 20
181.051180275168
 30
0.0
  0
VERTEX
  8
0
  6
DURCHGEHEND
 62
           7
  5
44F
 10
244.855445691643
 20
181.116440009238
 30
0.0
  0
VERTEX
  8
0
  6
DURCHGEHEND
 62
           7
  5
450
 10
244.769173799908
 20
181.177159231311
 30
0.0
  0
VERTEX
  8
0
  6
DURCHGEHEND
 62
           7
  5
451
 10
244.679916983461
 20
181.233171514219
 30
0.0
  0
VERTEX
  8
0
  6
DURCHGEHEND
 62
           7
  5
452
 10
244.58791988903
 20
181.284323332189
 30
0.0
  0
VERTEX
  8
0
  6
DURCHGEHEND
 62
           7
  5
453
 10
244.493434674256
 20
181.330474481643
 30
0.0
  0
VERTEX
  8
0
  6
DURCHGEHEND
 62
           7
  5
454
 10
244.396720316546
 20
181.371498465488
 30
0.0
  0
VERTEX
  8
0
  6
DURCHGEHEND
 62
           7
  5
455
 10
244.298041903232
 20
181.407282839836
 30
0.0
  0
VERTEX
  8
0
  6
DURCHGEHEND
 62
           7
  5
456
 10
244.197669904986
 20
181.437729522205
 30
0.0
  0
VERTEX
  8
0
  6
DURCHGEHEND
 62
           7
  5
457
 10
244.095879434477
 20
181.462755060353
 30
0.0
  0
VERTEX
  8
0
  6
DURCHGEHEND
 62
           7
  5
458
 10
243.992949492311
 20
181.482290861022
 30
0.0
  0
VERTEX
  8
0
  6
DURCHGEHEND
 62
           7
  5
459
 10
243.889162202304
 20
181.496283377938
 30
0.0
  0
VERTEX
  8
0
  6
DURCHGEHEND
 62
           7
  5
45A
 10
243.784802038204
 20
181.504694258586
 30
0.0
  0
VERTEX
  8
0
  6
DURCHGEHEND
 62
           7
  5
45B
 10
243.680155043966
 20
181.507500449327
 30
0.0
  0
VERTEX
  8
0
  6
DURCHGEHEND
 62
           7
  5
45C
 10
243.575508049729
 20
181.504694258586
 30
0.0
  0
VERTEX
  8
0
  6
DURCHGEHEND
 62
           7
  5
45D
 10
243.471147885629
 20
181.496283377938
 30
0.0
  0
VERTEX
  8
0
  6
DURCHGEHEND
 62
           7
  5
45E
 10
243.367360595622
 20
181.482290861022
 30
0.0
  0
VERTEX
  8
0
  6
DURCHGEHEND
 62
           7
  5
45F
 10
243.264430653455
 20
181.462755060353
 30
0.0
  0
VERTEX
  8
0
  6
DURCHGEHEND
 62
           7
  5
460
 10
243.162640182947
 20
181.437729522205
 30
0.0
  0
VERTEX
  8
0
  6
DURCHGEHEND
 62
           7
  5
461
 10
243.0622681847
 20
181.407282839836
 30
0.0
  0
VERTEX
  8
0
  6
DURCHGEHEND
 62
           7
  5
462
 10
242.963589771386
 20
181.371498465488
 30
0.0
  0
VERTEX
  8
0
  6
DURCHGEHEND
 62
           7
  5
463
 10
242.866875413677
 20
181.330474481643
 30
0.0
  0
VERTEX
  8
0
  6
DURCHGEHEND
 62
           7
  5
464
 10
242.772390198903
 20
181.284323332189
 30
0.0
  0
VERTEX
  8
0
  6
DURCHGEHEND
 62
           7
  5
465
 10
242.680393104472
 20
181.233171514219
 30
0.0
  0
VERTEX
  8
0
  6
DURCHGEHEND
 62
           7
  5
466
 10
242.591136288024
 20
181.177159231311
 30
0.0
  0
VERTEX
  8
0
  6
DURCHGEHEND
 62
           7
  5
467
 10
242.50486439629
 20
181.116440009238
 30
0.0
  0
VERTEX
  8
0
  6
DURCHGEHEND
 62
           7
  5
468
 10
242.421813894528
 20
181.051180275168
 30
0.0
  0
VERTEX
  8
0
  6
DURCHGEHEND
 62
           7
  5
469
 10
242.34221241839
 20
180.981558901495
 30
0.0
  0
VERTEX
  8
0
  6
DURCHGEHEND
 62
           7
  5
46A
 10
242.266278149989
 20
180.907766715566
 30
0.0
  0
VERTEX
  8
0
  6
DURCHGEHEND
 62
           7
  5
46B
 10
242.194219219877
 20
180.830005976633
 30
0.0
  0
VERTEX
  8
0
  6
DURCHGEHEND
 62
           7
  5
46C
 10
242.126233136574
 20
180.748489821477
 30
0.0
  0
VERTEX
  8
0
  6
DURCHGEHEND
 62
           7
  5
46D
 10
242.062506245206
 20
180.663441680212
 30
0.0
  0
VERTEX
  8
0
  6
DURCHGEHEND
 62
           7
  5
46E
 10
242.003213216755
 20
180.575094663882
 30
0.0
  0
VERTEX
  8
0
  6
DURCHGEHEND
 62
           7
  5
46F
 10
241.948516569289
 20
180.483690925518
 30
0.0
  0
VERTEX
  8
0
  6
DURCHGEHEND
 62
           7
  5
470
 10
241.898566222517
 20
180.389480996413
 30
0.0
  0
VERTEX
  8
0
  6
DURCHGEHEND
 62
           7
  5
471
 10
241.853499086868
 20
180.292723099435
 30
0.0
  0
VERTEX
  8
0
  6
DURCHGEHEND
 62
           7
  5
472
 10
241.813438688229
 20
180.193682441253
 30
0.0
  0
VERTEX
  8
0
  6
DURCHGEHEND
 62
           7
  5
473
 10
241.778494829366
 20
180.092630485428
 30
0.0
  0
VERTEX
  8
0
  6
DURCHGEHEND
 62
           7
  5
474
 10
241.74876328897
 20
179.989844208347
 30
0.0
  0
VERTEX
  8
0
  6
DURCHGEHEND
 62
           7
  5
475
 10
241.724325559124
 20
179.885605340049
 30
0.0
  0
VERTEX
  8
0
  6
DURCHGEHEND
 62
           7
  5
476
 10
241.705248621948
 20
179.780199592029
 30
0.0
  0
VERTEX
  8
0
  6
DURCHGEHEND
 62
           7
  5
477
 10
241.691584766
 20
179.673915874113
 30
0.0
  0
VERTEX
  8
0
  6
DURCHGEHEND
 62
           7
  5
478
 10
241.683371442961
 20
179.567045502586
 30
0.0
  0
VERTEX
  8
0
  6
DURCHGEHEND
 62
           7
  5
479
 10
241.680631164978
 20
179.459881401708
 30
0.0
  0
VERTEX
  8
0
  6
DURCHGEHEND
 62
           7
  5
47A
 10
241.683371442961
 20
179.35271730083
 30
0.0
  0
VERTEX
  8
0
  6
DURCHGEHEND
 62
           7
  5
47B
 10
241.691584766
 20
179.245846929303
 30
0.0
  0
VERTEX
  8
0
  6
DURCHGEHEND
 62
           7
  5
47C
 10
241.705248621948
 20
179.139563211388
 30
0.0
  0
VERTEX
  8
0
  6
DURCHGEHEND
 62
           7
  5
47D
 10
241.724325559124
 20
179.034157463367
 30
0.0
  0
VERTEX
  8
0
  6
DURCHGEHEND
 62
           7
  5
47E
 10
241.74876328897
 20
178.92991859507
 30
0.0
  0
VERTEX
  8
0
  6
DURCHGEHEND
 62
           7
  5
47F
 10
241.778494829366
 20
178.827132317988
 30
0.0
  0
VERTEX
  8
0
  6
DURCHGEHEND
 62
           7
  5
480
 10
241.813438688229
 20
178.726080362163
 30
0.0
  0
VERTEX
  8
0
  6
DURCHGEHEND
 62
           7
  5
481
 10
241.853499086868
 20
178.627039703981
 30
0.0
  0
VERTEX
  8
0
  6
DURCHGEHEND
 62
           7
  5
482
 10
241.898566222517
 20
178.530281807003
 30
0.0
  0
VERTEX
  8
0
  6
DURCHGEHEND
 62
           7
  5
483
 10
241.948516569289
 20
178.436071877899
 30
0.0
  0
VERTEX
  8
0
  6
DURCHGEHEND
 62
           7
  5
484
 10
242.003213216755
 20
178.344668139534
 30
0.0
  0
VERTEX
  8
0
  6
DURCHGEHEND
 62
           7
  5
485
 10
242.062506245206
 20
178.256321123204
 30
0.0
  0
VERTEX
  8
0
  6
DURCHGEHEND
 62
           7
  5
486
 10
242.126233136574
 20
178.171272981939
 30
0.0
  0
VERTEX
  8
0
  6
DURCHGEHEND
 62
           7
  5
487
 10
242.194219219877
 20
178.089756826783
 30
0.0
  0
VERTEX
  8
0
  6
DURCHGEHEND
 62
           7
  5
488
 10
242.266278149989
 20
178.01199608785
 30
0.0
  0
VERTEX
  8
0
  6
DURCHGEHEND
 62
           7
  5
489
 10
242.34221241839
 20
177.938203901921
 30
0.0
  0
VERTEX
  8
0
  6
DURCHGEHEND
 62
           7
  5
48A
 10
242.421813894528
 20
177.868582528249
 30
0.0
  0
VERTEX
  8
0
  6
DURCHGEHEND
 62
           7
  5
48B
 10
242.50486439629
 20
177.803322794178
 30
0.0
  0
VERTEX
  8
0
  6
DURCHGEHEND
 62
           7
  5
48C
 10
242.591136288025
 20
177.742603572106
 30
0.0
  0
VERTEX
  8
0
  6
DURCHGEHEND
 62
           7
  5
48D
 10
242.680393104472
 20
177.686591289197
 30
0.0
  0
VERTEX
  8
0
  6
DURCHGEHEND
 62
           7
  5
48E
 10
242.772390198903
 20
177.635439471227
 30
0.0
  0
VERTEX
  8
0
  6
DURCHGEHEND
 62
           7
  5
48F
 10
242.866875413677
 20
177.589288321773
 30
0.0
  0
VERTEX
  8
0
  6
DURCHGEHEND
 62
           7
  5
490
 10
242.963589771386
 20
177.548264337928
 30
0.0
  0
VERTEX
  8
0
  6
DURCHGEHEND
 62
           7
  5
491
 10
243.0622681847
 20
177.51247996358
 30
0.0
  0
VERTEX
  8
0
  6
DURCHGEHEND
 62
           7
  5
492
 10
243.162640182947
 20
177.482033281211
 30
0.0
  0
VERTEX
  8
0
  6
DURCHGEHEND
 62
           7
  5
493
 10
243.264430653455
 20
177.457007743063
 30
0.0
  0
VERTEX
  8
0
  6
DURCHGEHEND
 62
           7
  5
494
 10
243.367360595622
 20
177.437471942394
 30
0.0
  0
VERTEX
  8
0
  6
DURCHGEHEND
 62
           7
  5
495
 10
243.471147885629
 20
177.423479425478
 30
0.0
  0
VERTEX
  8
0
  6
DURCHGEHEND
 62
           7
  5
496
 10
243.575508049729
 20
177.41506854483
 30
0.0
  0
VERTEX
  8
0
  6
DURCHGEHEND
 62
           7
  5
497
 10
243.680155043966
 20
177.412262354089
 30
0.0
  0
VERTEX
  8
0
  6
DURCHGEHEND
 62
           7
  5
498
 10
243.784802038204
 20
177.41506854483
 30
0.0
  0
VERTEX
  8
0
  6
DURCHGEHEND
 62
           7
  5
499
 10
243.889162202304
 20
177.423479425478
 30
0.0
  0
VERTEX
  8
0
  6
DURCHGEHEND
 62
           7
  5
49A
 10
243.992949492311
 20
177.437471942394
 30
0.0
  0
VERTEX
  8
0
  6
DURCHGEHEND
 62
           7
  5
49B
 10
244.095879434477
 20
177.457007743063
 30
0.0
  0
VERTEX
  8
0
  6
DURCHGEHEND
 62
           7
  5
49C
 10
244.197669904986
 20
177.482033281211
 30
0.0
  0
VERTEX
  8
0
  6
DURCHGEHEND
 62
           7
  5
49D
 10
244.298041903232
 20
177.51247996358
 30
0.0
  0
VERTEX
  8
0
  6
DURCHGEHEND
 62
           7
  5
49E
 10
244.396720316546
 20
177.548264337928
 30
0.0
  0
VERTEX
  8
0
  6
DURCHGEHEND
 62
           7
  5
49F
 10
244.493434674256
 20
177.589288321773
 30
0.0
  0
VERTEX
  8
0
  6
DURCHGEHEND
 62
           7
  5
4A0
 10
244.58791988903
 20
177.635439471227
 30
0.0
  0
VERTEX
  8
0
  6
DURCHGEHEND
 62
           7
  5
4A1
 10
244.679916983461
 20
177.686591289197
 30
0.0
  0
VERTEX
  8
0
  6
DURCHGEHEND
 62
           7
  5
4A2
 10
244.769173799908
 20
177.742603572106
 30
0.0
  0
VERTEX
  8
0
  6
DURCHGEHEND
 62
           7
  5
4A3
 10
244.855445691643
 20
177.803322794178
 30
0.0
  0
VERTEX
  8
0
  6
DURCHGEHEND
 62
           7
  5
4A4
 10
244.938496193405
 20
177.868582528249
 30
0.0
  0
VERTEX
  8
0
  6
DURCHGEHEND
 62
           7
  5
4A5
 10
245.018097669543
 20
177.938203901921
 30
0.0
  0
VERTEX
  8
0
  6
DURCHGEHEND
 62
           7
  5
4A6
 10
245.094031937944
 20
178.01199608785
 30
0.0
  0
VERTEX
  8
0
  6
DURCHGEHEND
 62
           7
  5
4A7
 10
245.166090868055
 20
178.089756826783
 30
0.0
  0
VERTEX
  8
0
  6
DURCHGEHEND
 62
           7
  5
4A8
 10
245.234076951359
 20
178.171272981939
 30
0.0
  0
VERTEX
  8
0
  6
DURCHGEHEND
 62
           7
  5
4A9
 10
245.297803842727
 20
178.256321123204
 30
0.0
  0
VERTEX
  8
0
  6
DURCHGEHEND
 62
           7
  5
4AA
 10
245.357096871178
 20
178.344668139534
 30
0.0
  0
VERTEX
  8
0
  6
DURCHGEHEND
 62
           7
  5
4AB
 10
245.411793518644
 20
178.436071877899
 30
0.0
  0
VERTEX
  8
0
  6
DURCHGEHEND
 62
           7
  5
4AC
 10
245.461743865416
 20
178.530281807003
 30
0.0
  0
VERTEX
  8
0
  6
DURCHGEHEND
 62
           7
  5
4AD
 10
245.506811001064
 20
178.627039703981
 30
0.0
  0
VERTEX
  8
0
  6
DURCHGEHEND
 62
           7
  5
4AE
 10
245.546871399704
 20
178.726080362163
 30
0.0
  0
VERTEX
  8
0
  6
DURCHGEHEND
 62
           7
  5
4AF
 10
245.581815258566
 20
178.827132317988
 30
0.0
  0
VERTEX
  8
0
  6
DURCHGEHEND
 62
           7
  5
4B0
 10
245.611546798963
 20
178.92991859507
 30
0.0
  0
VERTEX
  8
0
  6
DURCHGEHEND
 62
           7
  5
4B1
 10
245.635984528809
 20
179.034157463367
 30
0.0
  0
VERTEX
  8
0
  6
DURCHGEHEND
 62
           7
  5
4B2
 10
245.655061465985
 20
179.139563211388
 30
0.0
  0
VERTEX
  8
0
  6
DURCHGEHEND
 62
           7
  5
4B3
 10
245.668725321932
 20
179.245846929303
 30
0.0
  0
VERTEX
  8
0
  6
DURCHGEHEND
 62
           7
  5
4B4
 10
245.676938644971
 20
179.35271730083
 30
0.0
  0
SEQEND
  8
0
  6
DURCHGEHEND
 62
           7
  5
4B5
  0
CIRCLE
  8
0
  6
DURCHGEHEND
 62
           7
  5
4B6
 10
284.179678922955
 20
198.912262354089
 30
0.0
 40
21.75
1001
ACAD
1000
TCW40_DEV_WIDTH
1002
{
1040
-3.0
1002
}
1001
TCAD
1000
TCW_CUSTOM_DATA
1002
{
1000
#$AUX@_ToolInfo Properties
1070
           8
1000
Einfügen^JKreis^JMittelpunktUndPunkt@Kreis MittelpunktUndPunkt
1002
}
  0
POLYLINE
  8
0
  6
DURCHGEHEND
 62
           7
  5
4B7
 66
           1
 10
0.0
 20
0.0
 30
0.0
 70
           1
1001
ACAD
1000
TCW40_DEV_WIDTH
1002
{
1040
-3.0
1002
}
  0
VERTEX
  8
0
  6
DURCHGEHEND
 62
           7
  5
4B8
 10
266.678725462177
 20
218.352738544565
 30
0.0
  0
VERTEX
  8
0
  6
DURCHGEHEND
 62
           7
  5
4B9
 10
266.675985184193
 20
218.459902645444
 30
0.0
  0
VERTEX
  8
0
  6
DURCHGEHEND
 62
           7
  5
4BA
 10
266.667771861154
 20
218.56677301697
 30
0.0
  0
VERTEX
  8
0
  6
DURCHGEHEND
 62
           7
  5
4BB
 10
266.654108005207
 20
218.673056734886
 30
0.0
  0
VERTEX
  8
0
  6
DURCHGEHEND
 62
           7
  5
4BC
 10
266.635031068031
 20
218.778462482906
 30
0.0
  0
VERTEX
  8
0
  6
DURCHGEHEND
 62
           7
  5
4BD
 10
266.610593338185
 20
218.882701351204
 30
0.0
  0
VERTEX
  8
0
  6
DURCHGEHEND
 62
           7
  5
4BE
 10
266.580861797788
 20
218.985487628285
 30
0.0
  0
VERTEX
  8
0
  6
DURCHGEHEND
 62
           7
  5
4BF
 10
266.545917938926
 20
219.08653958411
 30
0.0
  0
VERTEX
  8
0
  6
DURCHGEHEND
 62
           7
  5
4C0
 10
266.505857540286
 20
219.185580242292
 30
0.0
  0
VERTEX
  8
0
  6
DURCHGEHEND
 62
           7
  5
4C1
 10
266.460790404638
 20
219.28233813927
 30
0.0
  0
VERTEX
  8
0
  6
DURCHGEHEND
 62
           7
  5
4C2
 10
266.410840057866
 20
219.376548068375
 30
0.0
  0
VERTEX
  8
0
  6
DURCHGEHEND
 62
           7
  5
4C3
 10
266.3561434104
 20
219.467951806739
 30
0.0
  0
VERTEX
  8
0
  6
DURCHGEHEND
 62
           7
  5
4C4
 10
266.296850381949
 20
219.556298823069
 30
0.0
  0
VERTEX
  8
0
  6
DURCHGEHEND
 62
           7
  5
4C5
 10
266.233123490581
 20
219.641346964334
 30
0.0
  0
VERTEX
  8
0
  6
DURCHGEHEND
 62
           7
  5
4C6
 10
266.165137407277
 20
219.72286311949
 30
0.0
  0
VERTEX
  8
0
  6
DURCHGEHEND
 62
           7
  5
4C7
 10
266.093078477166
 20
219.800623858423
 30
0.0
  0
VERTEX
  8
0
  6
DURCHGEHEND
 62
           7
  5
4C8
 10
266.017144208765
 20
219.874416044352
 30
0.0
  0
VERTEX
  8
0
  6
DURCHGEHEND
 62
           7
  5
4C9
 10
265.937542732627
 20
219.944037418025
 30
0.0
  0
VERTEX
  8
0
  6
DURCHGEHEND
 62
           7
  5
4CA
 10
265.854492230864
 20
220.009297152095
 30
0.0
  0
VERTEX
  8
0
  6
DURCHGEHEND
 62
           7
  5
4CB
 10
265.76822033913
 20
220.070016374168
 30
0.0
  0
VERTEX
  8
0
  6
DURCHGEHEND
 62
           7
  5
4CC
 10
265.678963522683
 20
220.126028657076
 30
0.0
  0
VERTEX
  8
0
  6
DURCHGEHEND
 62
           7
  5
4CD
 10
265.586966428251
 20
220.177180475046
 30
0.0
  0
VERTEX
  8
0
  6
DURCHGEHEND
 62
           7
  5
4CE
 10
265.492481213478
 20
220.2233316245
 30
0.0
  0
VERTEX
  8
0
  6
DURCHGEHEND
 62
           7
  5
4CF
 10
265.395766855768
 20
220.264355608345
 30
0.0
  0
VERTEX
  8
0
  6
DURCHGEHEND
 62
           7
  5
4D0
 10
265.297088442454
 20
220.300139982693
 30
0.0
  0
VERTEX
  8
0
  6
DURCHGEHEND
 62
           7
  5
4D1
 10
265.196716444208
 20
220.330586665062
 30
0.0
  0
VERTEX
  8
0
  6
DURCHGEHEND
 62
           7
  5
4D2
 10
265.094925973699
 20
220.355612203211
 30
0.0
  0
VERTEX
  8
0
  6
DURCHGEHEND
 62
           7
  5
4D3
 10
264.991996031533
 20
220.375148003879
 30
0.0
  0
VERTEX
  8
0
  6
DURCHGEHEND
 62
           7
  5
4D4
 10
264.888208741526
 20
220.389140520795
 30
0.0
  0
VERTEX
  8
0
  6
DURCHGEHEND
 62
           7
  5
4D5
 10
264.783848577426
 20
220.397551401444
 30
0.0
  0
VERTEX
  8
0
  6
DURCHGEHEND
 62
           7
  5
4D6
 10
264.679201583188
 20
220.400357592184
 30
0.0
  0
VERTEX
  8
0
  6
DURCHGEHEND
 62
           7
  5
4D7
 10
264.574554588951
 20
220.397551401444
 30
0.0
  0
VERTEX
  8
0
  6
DURCHGEHEND
 62
           7
  5
4D8
 10
264.470194424851
 20
220.389140520795
 30
0.0
  0
VERTEX
  8
0
  6
DURCHGEHEND
 62
           7
  5
4D9
 10
264.366407134843
 20
220.375148003879
 30
0.0
  0
VERTEX
  8
0
  6
DURCHGEHEND
 62
           7
  5
4DA
 10
264.263477192677
 20
220.355612203211
 30
0.0
  0
VERTEX
  8
0
  6
DURCHGEHEND
 62
           7
  5
4DB
 10
264.161686722169
 20
220.330586665062
 30
0.0
  0
VERTEX
  8
0
  6
DURCHGEHEND
 62
           7
  5
4DC
 10
264.061314723922
 20
220.300139982693
 30
0.0
  0
VERTEX
  8
0
  6
DURCHGEHEND
 62
           7
  5
4DD
 10
263.962636310608
 20
220.264355608345
 30
0.0
  0
VERTEX
  8
0
  6
DURCHGEHEND
 62
           7
  5
4DE
 10
263.865921952899
 20
220.2233316245
 30
0.0
  0
VERTEX
  8
0
  6
DURCHGEHEND
 62
           7
  5
4DF
 10
263.771436738125
 20
220.177180475046
 30
0.0
  0
VERTEX
  8
0
  6
DURCHGEHEND
 62
           7
  5
4E0
 10
263.679439643694
 20
220.126028657076
 30
0.0
  0
VERTEX
  8
0
  6
DURCHGEHEND
 62
           7
  5
4E1
 10
263.590182827246
 20
220.070016374168
 30
0.0
  0
VERTEX
  8
0
  6
DURCHGEHEND
 62
           7
  5
4E2
 10
263.503910935512
 20
220.009297152095
 30
0.0
  0
VERTEX
  8
0
  6
DURCHGEHEND
 62
           7
  5
4E3
 10
263.42086043375
 20
219.944037418025
 30
0.0
  0
VERTEX
  8
0
  6
DURCHGEHEND
 62
           7
  5
4E4
 10
263.341258957612
 20
219.874416044352
 30
0.0
  0
VERTEX
  8
0
  6
DURCHGEHEND
 62
           7
  5
4E5
 10
263.265324689211
 20
219.800623858423
 30
0.0
  0
VERTEX
  8
0
  6
DURCHGEHEND
 62
           7
  5
4E6
 10
263.193265759099
 20
219.72286311949
 30
0.0
  0
VERTEX
  8
0
  6
DURCHGEHEND
 62
           7
  5
4E7
 10
263.125279675795
 20
219.641346964334
 30
0.0
  0
VERTEX
  8
0
  6
DURCHGEHEND
 62
           7
  5
4E8
 10
263.061552784428
 20
219.556298823069
 30
0.0
  0
VERTEX
  8
0
  6
DURCHGEHEND
 62
           7
  5
4E9
 10
263.002259755976
 20
219.467951806739
 30
0.0
  0
VERTEX
  8
0
  6
DURCHGEHEND
 62
           7
  5
4EA
 10
262.94756310851
 20
219.376548068375
 30
0.0
  0
VERTEX
  8
0
  6
DURCHGEHEND
 62
           7
  5
4EB
 10
262.897612761739
 20
219.28233813927
 30
0.0
  0
VERTEX
  8
0
  6
DURCHGEHEND
 62
           7
  5
4EC
 10
262.85254562609
 20
219.185580242292
 30
0.0
  0
VERTEX
  8
0
  6
DURCHGEHEND
 62
           7
  5
4ED
 10
262.812485227451
 20
219.08653958411
 30
0.0
  0
VERTEX
  8
0
  6
DURCHGEHEND
 62
           7
  5
4EE
 10
262.777541368588
 20
218.985487628285
 30
0.0
  0
VERTEX
  8
0
  6
DURCHGEHEND
 62
           7
  5
4EF
 10
262.747809828191
 20
218.882701351204
 30
0.0
  0
VERTEX
  8
0
  6
DURCHGEHEND
 62
           7
  5
4F0
 10
262.723372098346
 20
218.778462482906
 30
0.0
  0
VERTEX
  8
0
  6
DURCHGEHEND
 62
           7
  5
4F1
 10
262.70429516117
 20
218.673056734886
 30
0.0
  0
VERTEX
  8
0
  6
DURCHGEHEND
 62
           7
  5
4F2
 10
262.690631305222
 20
218.56677301697
 30
0.0
  0
VERTEX
  8
0
  6
DURCHGEHEND
 62
           7
  5
4F3
 10
262.682417982183
 20
218.459902645444
 30
0.0
  0
VERTEX
  8
0
  6
DURCHGEHEND
 62
           7
  5
4F4
 10
262.6796777042
 20
218.352738544565
 30
0.0
  0
VERTEX
  8
0
  6
DURCHGEHEND
 62
           7
  5
4F5
 10
262.682417982183
 20
218.245574443687
 30
0.0
  0
VERTEX
  8
0
  6
DURCHGEHEND
 62
           7
  5
4F6
 10
262.690631305222
 20
218.13870407216
 30
0.0
  0
VERTEX
  8
0
  6
DURCHGEHEND
 62
           7
  5
4F7
 10
262.70429516117
 20
218.032420354245
 30
0.0
  0
VERTEX
  8
0
  6
DURCHGEHEND
 62
           7
  5
4F8
 10
262.723372098346
 20
217.927014606224
 30
0.0
  0
VERTEX
  8
0
  6
DURCHGEHEND
 62
           7
  5
4F9
 10
262.747809828191
 20
217.822775737927
 30
0.0
  0
VERTEX
  8
0
  6
DURCHGEHEND
 62
           7
  5
4FA
 10
262.777541368588
 20
217.719989460845
 30
0.0
  0
VERTEX
  8
0
  6
DURCHGEHEND
 62
           7
  5
4FB
 10
262.812485227451
 20
217.61893750502
 30
0.0
  0
VERTEX
  8
0
  6
DURCHGEHEND
 62
           7
  5
4FC
 10
262.85254562609
 20
217.519896846839
 30
0.0
  0
VERTEX
  8
0
  6
DURCHGEHEND
 62
           7
  5
4FD
 10
262.897612761739
 20
217.42313894986
 30
0.0
  0
VERTEX
  8
0
  6
DURCHGEHEND
 62
           7
  5
4FE
 10
262.94756310851
 20
217.328929020756
 30
0.0
  0
VERTEX
  8
0
  6
DURCHGEHEND
 62
           7
  5
4FF
 10
263.002259755976
 20
217.237525282392
 30
0.0
  0
VERTEX
  8
0
  6
DURCHGEHEND
 62
           7
  5
500
 10
263.061552784428
 20
217.149178266062
 30
0.0
  0
VERTEX
  8
0
  6
DURCHGEHEND
 62
           7
  5
501
 10
263.125279675795
 20
217.064130124796
 30
0.0
  0
VERTEX
  8
0
  6
DURCHGEHEND
 62
           7
  5
502
 10
263.193265759099
 20
216.98261396964
 30
0.0
  0
VERTEX
  8
0
  6
DURCHGEHEND
 62
           7
  5
503
 10
263.265324689211
 20
216.904853230707
 30
0.0
  0
VERTEX
  8
0
  6
DURCHGEHEND
 62
           7
  5
504
 10
263.341258957612
 20
216.831061044778
 30
0.0
  0
VERTEX
  8
0
  6
DURCHGEHEND
 62
           7
  5
505
 10
263.42086043375
 20
216.761439671106
 30
0.0
  0
VERTEX
  8
0
  6
DURCHGEHEND
 62
           7
  5
506
 10
263.503910935512
 20
216.696179937036
 30
0.0
  0
VERTEX
  8
0
  6
DURCHGEHEND
 62
           7
  5
507
 10
263.590182827246
 20
216.635460714963
 30
0.0
  0
VERTEX
  8
0
  6
DURCHGEHEND
 62
           7
  5
508
 10
263.679439643694
 20
216.579448432054
 30
0.0
  0
VERTEX
  8
0
  6
DURCHGEHEND
 62
           7
  5
509
 10
263.771436738125
 20
216.528296614084
 30
0.0
  0
VERTEX
  8
0
  6
DURCHGEHEND
 62
           7
  5
50A
 10
263.865921952899
 20
216.48214546463
 30
0.0
  0
VERTEX
  8
0
  6
DURCHGEHEND
 62
           7
  5
50B
 10
263.962636310608
 20
216.441121480785
 30
0.0
  0
VERTEX
  8
0
  6
DURCHGEHEND
 62
           7
  5
50C
 10
264.061314723922
 20
216.405337106437
 30
0.0
  0
VERTEX
  8
0
  6
DURCHGEHEND
 62
           7
  5
50D
 10
264.161686722169
 20
216.374890424069
 30
0.0
  0
VERTEX
  8
0
  6
DURCHGEHEND
 62
           7
  5
50E
 10
264.263477192677
 20
216.34986488592
 30
0.0
  0
VERTEX
  8
0
  6
DURCHGEHEND
 62
           7
  5
50F
 10
264.366407134843
 20
216.330329085251
 30
0.0
  0
VERTEX
  8
0
  6
DURCHGEHEND
 62
           7
  5
510
 10
264.470194424851
 20
216.316336568335
 30
0.0
  0
VERTEX
  8
0
  6
DURCHGEHEND
 62
           7
  5
511
 10
264.574554588951
 20
216.307925687687
 30
0.0
  0
VERTEX
  8
0
  6
DURCHGEHEND
 62
           7
  5
512
 10
264.679201583188
 20
216.305119496946
 30
0.0
  0
VERTEX
  8
0
  6
DURCHGEHEND
 62
           7
  5
513
 10
264.783848577426
 20
216.307925687687
 30
0.0
  0
VERTEX
  8
0
  6
DURCHGEHEND
 62
           7
  5
514
 10
264.888208741526
 20
216.316336568335
 30
0.0
  0
VERTEX
  8
0
  6
DURCHGEHEND
 62
           7
  5
515
 10
264.991996031533
 20
216.330329085251
 30
0.0
  0
VERTEX
  8
0
  6
DURCHGEHEND
 62
           7
  5
516
 10
265.094925973699
 20
216.34986488592
 30
0.0
  0
VERTEX
  8
0
  6
DURCHGEHEND
 62
           7
  5
517
 10
265.196716444208
 20
216.374890424069
 30
0.0
  0
VERTEX
  8
0
  6
DURCHGEHEND
 62
           7
  5
518
 10
265.297088442454
 20
216.405337106437
 30
0.0
  0
VERTEX
  8
0
  6
DURCHGEHEND
 62
           7
  5
519
 10
265.395766855768
 20
216.441121480785
 30
0.0
  0
VERTEX
  8
0
  6
DURCHGEHEND
 62
           7
  5
51A
 10
265.492481213478
 20
216.48214546463
 30
0.0
  0
VERTEX
  8
0
  6
DURCHGEHEND
 62
           7
  5
51B
 10
265.586966428251
 20
216.528296614084
 30
0.0
  0
VERTEX
  8
0
  6
DURCHGEHEND
 62
           7
  5
51C
 10
265.678963522683
 20
216.579448432054
 30
0.0
  0
VERTEX
  8
0
  6
DURCHGEHEND
 62
           7
  5
51D
 10
265.76822033913
 20
216.635460714963
 30
0.0
  0
VERTEX
  8
0
  6
DURCHGEHEND
 62
           7
  5
51E
 10
265.854492230864
 20
216.696179937036
 30
0.0
  0
VERTEX
  8
0
  6
DURCHGEHEND
 62
           7
  5
51F
 10
265.937542732627
 20
216.761439671106
 30
0.0
  0
VERTEX
  8
0
  6
DURCHGEHEND
 62
           7
  5
520
 10
266.017144208765
 20
216.831061044778
 30
0.0
  0
VERTEX
  8
0
  6
DURCHGEHEND
 62
           7
  5
521
 10
266.093078477166
 20
216.904853230707
 30
0.0
  0
VERTEX
  8
0
  6
DURCHGEHEND
 62
           7
  5
522
 10
266.165137407277
 20
216.98261396964
 30
0.0
  0
VERTEX
  8
0
  6
DURCHGEHEND
 62
           7
  5
523
 10
266.233123490581
 20
217.064130124796
 30
0.0
  0
VERTEX
  8
0
  6
DURCHGEHEND
 62
           7
  5
524
 10
266.296850381949
 20
217.149178266062
 30
0.0
  0
VERTEX
  8
0
  6
DURCHGEHEND
 62
           7
  5
525
 10
266.3561434104
 20
217.237525282392
 30
0.0
  0
VERTEX
  8
0
  6
DURCHGEHEND
 62
           7
  5
526
 10
266.410840057866
 20
217.328929020756
 30
0.0
  0
VERTEX
  8
0
  6
DURCHGEHEND
 62
           7
  5
527
 10
266.460790404638
 20
217.42313894986
 30
0.0
  0
VERTEX
  8
0
  6
DURCHGEHEND
 62
           7
  5
528
 10
266.505857540286
 20
217.519896846839
 30
0.0
  0
VERTEX
  8
0
  6
DURCHGEHEND
 62
           7
  5
529
 10
266.545917938926
 20
217.61893750502
 30
0.0
  0
VERTEX
  8
0
  6
DURCHGEHEND
 62
           7
  5
52A
 10
266.580861797788
 20
217.719989460845
 30
0.0
  0
VERTEX
  8
0
  6
DURCHGEHEND
 62
           7
  5
52B
 10
266.610593338185
 20
217.822775737927
 30
0.0
  0
VERTEX
  8
0
  6
DURCHGEHEND
 62
           7
  5
52C
 10
266.635031068031
 20
217.927014606224
 30
0.0
  0
VERTEX
  8
0
  6
DURCHGEHEND
 62
           7
  5
52D
 10
266.654108005207
 20
218.032420354245
 30
0.0
  0
VERTEX
  8
0
  6
DURCHGEHEND
 62
           7
  5
52E
 10
266.667771861154
 20
218.13870407216
 30
0.0
  0
VERTEX
  8
0
  6
DURCHGEHEND
 62
           7
  5
52F
 10
266.675985184193
 20
218.245574443687
 30
0.0
  0
SEQEND
  8
0
  6
DURCHGEHEND
 62
           7
  5
530
  0
POLYLINE
  8
0
  6
DURCHGEHEND
 62
           7
  5
531
 66
           1
 10
0.0
 20
0.0
 30
0.0
 70
           1
1001
ACAD
1000
TCW40_DEV_WIDTH
1002
{
1040
-3.0
1002
}
  0
VERTEX
  8
0
  6
DURCHGEHEND
 62
           7
  5
532
 10
305.6796777042
 20
218.36464330647
 30
0.0
  0
VERTEX
  8
0
  6
DURCHGEHEND
 62
           7
  5
533
 10
305.676937426216
 20
218.471807407348
 30
0.0
  0
VERTEX
  8
0
  6
DURCHGEHEND
 62
           7
  5
534
 10
305.668724103177
 20
218.578677778875
 30
0.0
  0
VERTEX
  8
0
  6
DURCHGEHEND
 62
           7
  5
535
 10
305.65506024723
 20
218.68496149679
 30
0.0
  0
VERTEX
  8
0
  6
DURCHGEHEND
 62
           7
  5
536
 10
305.635983310054
 20
218.790367244811
 30
0.0
  0
VERTEX
  8
0
  6
DURCHGEHEND
 62
           7
  5
537
 10
305.611545580208
 20
218.894606113108
 30
0.0
  0
VERTEX
  8
0
  6
DURCHGEHEND
 62
           7
  5
538
 10
305.581814039811
 20
218.99739239019
 30
0.0
  0
VERTEX
  8
0
  6
DURCHGEHEND
 62
           7
  5
539
 10
305.546870180948
 20
219.098444346015
 30
0.0
  0
VERTEX
  8
0
  6
DURCHGEHEND
 62
           7
  5
53A
 10
305.506809782309
 20
219.197485004197
 30
0.0
  0
VERTEX
  8
0
  6
DURCHGEHEND
 62
           7
  5
53B
 10
305.46174264666
 20
219.294242901175
 30
0.0
  0
VERTEX
  8
0
  6
DURCHGEHEND
 62
           7
  5
53C
 10
305.411792299889
 20
219.388452830279
 30
0.0
  0
VERTEX
  8
0
  6
DURCHGEHEND
 62
           7
  5
53D
 10
305.357095652423
 20
219.479856568644
 30
0.0
  0
VERTEX
  8
0
  6
DURCHGEHEND
 62
           7
  5
53E
 10
305.297802623971
 20
219.568203584974
 30
0.0
  0
VERTEX
  8
0
  6
DURCHGEHEND
 62
           7
  5
53F
 10
305.234075732604
 20
219.653251726239
 30
0.0
  0
VERTEX
  8
0
  6
DURCHGEHEND
 62
           7
  5
540
 10
305.1660896493
 20
219.734767881395
 30
0.0
  0
VERTEX
  8
0
  6
DURCHGEHEND
 62
           7
  5
541
 10
305.094030719188
 20
219.812528620328
 30
0.0
  0
VERTEX
  8
0
  6
DURCHGEHEND
 62
           7
  5
542
 10
305.018096450788
 20
219.886320806257
 30
0.0
  0
VERTEX
  8
0
  6
DURCHGEHEND
 62
           7
  5
543
 10
304.93849497465
 20
219.955942179929
 30
0.0
  0
VERTEX
  8
0
  6
DURCHGEHEND
 62
           7
  5
544
 10
304.855444472887
 20
220.021201914
 30
0.0
  0
VERTEX
  8
0
  6
DURCHGEHEND
 62
           7
  5
545
 10
304.769172581153
 20
220.081921136072
 30
0.0
  0
VERTEX
  8
0
  6
DURCHGEHEND
 62
           7
  5
546
 10
304.679915764705
 20
220.137933418981
 30
0.0
  0
VERTEX
  8
0
  6
DURCHGEHEND
 62
           7
  5
547
 10
304.587918670274
 20
220.189085236951
 30
0.0
  0
VERTEX
  8
0
  6
DURCHGEHEND
 62
           7
  5
548
 10
304.493433455501
 20
220.235236386405
 30
0.0
  0
VERTEX
  8
0
  6
DURCHGEHEND
 62
           7
  5
549
 10
304.396719097791
 20
220.27626037025
 30
0.0
  0
VERTEX
  8
0
  6
DURCHGEHEND
 62
           7
  5
54A
 10
304.298040684477
 20
220.312044744598
 30
0.0
  0
VERTEX
  8
0
  6
DURCHGEHEND
 62
           7
  5
54B
 10
304.19766868623
 20
220.342491426967
 30
0.0
  0
VERTEX
  8
0
  6
DURCHGEHEND
 62
           7
  5
54C
 10
304.095878215722
 20
220.367516965115
 30
0.0
  0
VERTEX
  8
0
  6
DURCHGEHEND
 62
           7
  5
54D
 10
303.992948273556
 20
220.387052765784
 30
0.0
  0
VERTEX
  8
0
  6
DURCHGEHEND
 62
           7
  5
54E
 10
303.889160983549
 20
220.4010452827
 30
0.0
  0
VERTEX
  8
0
  6
DURCHGEHEND
 62
           7
  5
54F
 10
303.784800819448
 20
220.409456163348
 30
0.0
  0
VERTEX
  8
0
  6
DURCHGEHEND
 62
           7
  5
550
 10
303.680153825211
 20
220.412262354089
 30
0.0
  0
VERTEX
  8
0
  6
DURCHGEHEND
 62
           7
  5
551
 10
303.575506830973
 20
220.409456163348
 30
0.0
  0
VERTEX
  8
0
  6
DURCHGEHEND
 62
           7
  5
552
 10
303.471146666873
 20
220.4010452827
 30
0.0
  0
VERTEX
  8
0
  6
DURCHGEHEND
 62
           7
  5
553
 10
303.367359376866
 20
220.387052765784
 30
0.0
  0
VERTEX
  8
0
  6
DURCHGEHEND
 62
           7
  5
554
 10
303.2644294347
 20
220.367516965115
 30
0.0
  0
VERTEX
  8
0
  6
DURCHGEHEND
 62
           7
  5
555
 10
303.162638964191
 20
220.342491426967
 30
0.0
  0
VERTEX
  8
0
  6
DURCHGEHEND
 62
           7
  5
556
 10
303.062266965945
 20
220.312044744598
 30
0.0
  0
VERTEX
  8
0
  6
DURCHGEHEND
 62
           7
  5
557
 10
302.963588552631
 20
220.27626037025
 30
0.0
  0
VERTEX
  8
0
  6
DURCHGEHEND
 62
           7
  5
558
 10
302.866874194921
 20
220.235236386405
 30
0.0
  0
VERTEX
  8
0
  6
DURCHGEHEND
 62
           7
  5
559
 10
302.772388980148
 20
220.189085236951
 30
0.0
  0
VERTEX
  8
0
  6
DURCHGEHEND
 62
           7
  5
55A
 10
302.680391885717
 20
220.137933418981
 30
0.0
  0
VERTEX
  8
0
  6
DURCHGEHEND
 62
           7
  5
55B
 10
302.591135069269
 20
220.081921136072
 30
0.0
  0
VERTEX
  8
0
  6
DURCHGEHEND
 62
           7
  5
55C
 10
302.504863177535
 20
220.021201914
 30
0.0
  0
VERTEX
  8
0
  6
DURCHGEHEND
 62
           7
  5
55D
 10
302.421812675772
 20
219.955942179929
 30
0.0
  0
VERTEX
  8
0
  6
DURCHGEHEND
 62
           7
  5
55E
 10
302.342211199634
 20
219.886320806257
 30
0.0
  0
VERTEX
  8
0
  6
DURCHGEHEND
 62
           7
  5
55F
 10
302.266276931234
 20
219.812528620328
 30
0.0
  0
VERTEX
  8
0
  6
DURCHGEHEND
 62
           7
  5
560
 10
302.194218001122
 20
219.734767881395
 30
0.0
  0
VERTEX
  8
0
  6
DURCHGEHEND
 62
           7
  5
561
 10
302.126231917818
 20
219.653251726239
 30
0.0
  0
VERTEX
  8
0
  6
DURCHGEHEND
 62
           7
  5
562
 10
302.062505026451
 20
219.568203584974
 30
0.0
  0
VERTEX
  8
0
  6
DURCHGEHEND
 62
           7
  5
563
 10
302.003211997999
 20
219.479856568644
 30
0.0
  0
VERTEX
  8
0
  6
DURCHGEHEND
 62
           7
  5
564
 10
301.948515350533
 20
219.388452830279
 30
0.0
  0
VERTEX
  8
0
  6
DURCHGEHEND
 62
           7
  5
565
 10
301.898565003762
 20
219.294242901175
 30
0.0
  0
VERTEX
  8
0
  6
DURCHGEHEND
 62
           7
  5
566
 10
301.853497868113
 20
219.197485004197
 30
0.0
  0
VERTEX
  8
0
  6
DURCHGEHEND
 62
           7
  5
567
 10
301.813437469473
 20
219.098444346015
 30
0.0
  0
VERTEX
  8
0
  6
DURCHGEHEND
 62
           7
  5
568
 10
301.778493610611
 20
218.99739239019
 30
0.0
  0
VERTEX
  8
0
  6
DURCHGEHEND
 62
           7
  5
569
 10
301.748762070214
 20
218.894606113108
 30
0.0
  0
VERTEX
  8
0
  6
DURCHGEHEND
 62
           7
  5
56A
 10
301.724324340368
 20
218.790367244811
 30
0.0
  0
VERTEX
  8
0
  6
DURCHGEHEND
 62
           7
  5
56B
 10
301.705247403192
 20
218.68496149679
 30
0.0
  0
VERTEX
  8
0
  6
DURCHGEHEND
 62
           7
  5
56C
 10
301.691583547245
 20
218.578677778875
 30
0.0
  0
VERTEX
  8
0
  6
DURCHGEHEND
 62
           7
  5
56D
 10
301.683370224206
 20
218.471807407348
 30
0.0
  0
VERTEX
  8
0
  6
DURCHGEHEND
 62
           7
  5
56E
 10
301.680629946222
 20
218.36464330647
 30
0.0
  0
VERTEX
  8
0
  6
DURCHGEHEND
 62
           7
  5
56F
 10
301.683370224206
 20
218.257479205592
 30
0.0
  0
VERTEX
  8
0
  6
DURCHGEHEND
 62
           7
  5
570
 10
301.691583547245
 20
218.150608834065
 30
0.0
  0
VERTEX
  8
0
  6
DURCHGEHEND
 62
           7
  5
571
 10
301.705247403192
 20
218.044325116149
 30
0.0
  0
VERTEX
  8
0
  6
DURCHGEHEND
 62
           7
  5
572
 10
301.724324340368
 20
217.938919368129
 30
0.0
  0
VERTEX
  8
0
  6
DURCHGEHEND
 62
           7
  5
573
 10
301.748762070214
 20
217.834680499831
 30
0.0
  0
VERTEX
  8
0
  6
DURCHGEHEND
 62
           7
  5
574
 10
301.778493610611
 20
217.73189422275
 30
0.0
  0
VERTEX
  8
0
  6
DURCHGEHEND
 62
           7
  5
575
 10
301.813437469473
 20
217.630842266925
 30
0.0
  0
VERTEX
  8
0
  6
DURCHGEHEND
 62
           7
  5
576
 10
301.853497868113
 20
217.531801608743
 30
0.0
  0
VERTEX
  8
0
  6
DURCHGEHEND
 62
           7
  5
577
 10
301.898565003762
 20
217.435043711765
 30
0.0
  0
VERTEX
  8
0
  6
DURCHGEHEND
 62
           7
  5
578
 10
301.948515350533
 20
217.34083378266
 30
0.0
  0
VERTEX
  8
0
  6
DURCHGEHEND
 62
           7
  5
579
 10
302.003211997999
 20
217.249430044296
 30
0.0
  0
VERTEX
  8
0
  6
DURCHGEHEND
 62
           7
  5
57A
 10
302.062505026451
 20
217.161083027966
 30
0.0
  0
VERTEX
  8
0
  6
DURCHGEHEND
 62
           7
  5
57B
 10
302.126231917818
 20
217.076034886701
 30
0.0
  0
VERTEX
  8
0
  6
DURCHGEHEND
 62
           7
  5
57C
 10
302.194218001122
 20
216.994518731545
 30
0.0
  0
VERTEX
  8
0
  6
DURCHGEHEND
 62
           7
  5
57D
 10
302.266276931234
 20
216.916757992612
 30
0.0
  0
VERTEX
  8
0
  6
DURCHGEHEND
 62
           7
  5
57E
 10
302.342211199634
 20
216.842965806683
 30
0.0
  0
VERTEX
  8
0
  6
DURCHGEHEND
 62
           7
  5
57F
 10
302.421812675772
 20
216.77334443301
 30
0.0
  0
VERTEX
  8
0
  6
DURCHGEHEND
 62
           7
  5
580
 10
302.504863177535
 20
216.70808469894
 30
0.0
  0
VERTEX
  8
0
  6
DURCHGEHEND
 62
           7
  5
581
 10
302.591135069269
 20
216.647365476867
 30
0.0
  0
VERTEX
  8
0
  6
DURCHGEHEND
 62
           7
  5
582
 10
302.680391885717
 20
216.591353193959
 30
0.0
  0
VERTEX
  8
0
  6
DURCHGEHEND
 62
           7
  5
583
 10
302.772388980148
 20
216.540201375989
 30
0.0
  0
VERTEX
  8
0
  6
DURCHGEHEND
 62
           7
  5
584
 10
302.866874194921
 20
216.494050226535
 30
0.0
  0
VERTEX
  8
0
  6
DURCHGEHEND
 62
           7
  5
585
 10
302.963588552631
 20
216.45302624269
 30
0.0
  0
VERTEX
  8
0
  6
DURCHGEHEND
 62
           7
  5
586
 10
303.062266965945
 20
216.417241868342
 30
0.0
  0
VERTEX
  8
0
  6
DURCHGEHEND
 62
           7
  5
587
 10
303.162638964191
 20
216.386795185973
 30
0.0
  0
VERTEX
  8
0
  6
DURCHGEHEND
 62
           7
  5
588
 10
303.2644294347
 20
216.361769647825
 30
0.0
  0
VERTEX
  8
0
  6
DURCHGEHEND
 62
           7
  5
589
 10
303.367359376866
 20
216.342233847156
 30
0.0
  0
VERTEX
  8
0
  6
DURCHGEHEND
 62
           7
  5
58A
 10
303.471146666873
 20
216.32824133024
 30
0.0
  0
VERTEX
  8
0
  6
DURCHGEHEND
 62
           7
  5
58B
 10
303.575506830973
 20
216.319830449592
 30
0.0
  0
VERTEX
  8
0
  6
DURCHGEHEND
 62
           7
  5
58C
 10
303.680153825211
 20
216.317024258851
 30
0.0
  0
VERTEX
  8
0
  6
DURCHGEHEND
 62
           7
  5
58D
 10
303.784800819448
 20
216.319830449592
 30
0.0
  0
VERTEX
  8
0
  6
DURCHGEHEND
 62
           7
  5
58E
 10
303.889160983549
 20
216.32824133024
 30
0.0
  0
VERTEX
  8
0
  6
DURCHGEHEND
 62
           7
  5
58F
 10
303.992948273556
 20
216.342233847156
 30
0.0
  0
VERTEX
  8
0
  6
DURCHGEHEND
 62
           7
  5
590
 10
304.095878215722
 20
216.361769647825
 30
0.0
  0
VERTEX
  8
0
  6
DURCHGEHEND
 62
           7
  5
591
 10
304.19766868623
 20
216.386795185973
 30
0.0
  0
VERTEX
  8
0
  6
DURCHGEHEND
 62
           7
  5
592
 10
304.298040684477
 20
216.417241868342
 30
0.0
  0
VERTEX
  8
0
  6
DURCHGEHEND
 62
           7
  5
593
 10
304.396719097791
 20
216.45302624269
 30
0.0
  0
VERTEX
  8
0
  6
DURCHGEHEND
 62
           7
  5
594
 10
304.493433455501
 20
216.494050226535
 30
0.0
  0
VERTEX
  8
0
  6
DURCHGEHEND
 62
           7
  5
595
 10
304.587918670274
 20
216.540201375989
 30
0.0
  0
VERTEX
  8
0
  6
DURCHGEHEND
 62
           7
  5
596
 10
304.679915764705
 20
216.591353193959
 30
0.0
  0
VERTEX
  8
0
  6
DURCHGEHEND
 62
           7
  5
597
 10
304.769172581153
 20
216.647365476867
 30
0.0
  0
VERTEX
  8
0
  6
DURCHGEHEND
 62
           7
  5
598
 10
304.855444472887
 20
216.70808469894
 30
0.0
  0
VERTEX
  8
0
  6
DURCHGEHEND
 62
           7
  5
599
 10
304.93849497465
 20
216.77334443301
 30
0.0
  0
VERTEX
  8
0
  6
DURCHGEHEND
 62
           7
  5
59A
 10
305.018096450788
 20
216.842965806683
 30
0.0
  0
VERTEX
  8
0
  6
DURCHGEHEND
 62
           7
  5
59B
 10
305.094030719188
 20
216.916757992612
 30
0.0
  0
VERTEX
  8
0
  6
DURCHGEHEND
 62
           7
  5
59C
 10
305.1660896493
 20
216.994518731545
 30
0.0
  0
VERTEX
  8
0
  6
DURCHGEHEND
 62
           7
  5
59D
 10
305.234075732604
 20
217.076034886701
 30
0.0
  0
VERTEX
  8
0
  6
DURCHGEHEND
 62
           7
  5
59E
 10
305.297802623971
 20
217.161083027966
 30
0.0
  0
VERTEX
  8
0
  6
DURCHGEHEND
 62
           7
  5
59F
 10
305.357095652423
 20
217.249430044296
 30
0.0
  0
VERTEX
  8
0
  6
DURCHGEHEND
 62
           7
  5
5A0
 10
305.411792299889
 20
217.34083378266
 30
0.0
  0
VERTEX
  8
0
  6
DURCHGEHEND
 62
           7
  5
5A1
 10
305.46174264666
 20
217.435043711765
 30
0.0
  0
VERTEX
  8
0
  6
DURCHGEHEND
 62
           7
  5
5A2
 10
305.506809782309
 20
217.531801608743
 30
0.0
  0
VERTEX
  8
0
  6
DURCHGEHEND
 62
           7
  5
5A3
 10
305.546870180948
 20
217.630842266925
 30
0.0
  0
VERTEX
  8
0
  6
DURCHGEHEND
 62
           7
  5
5A4
 10
305.581814039811
 20
217.73189422275
 30
0.0
  0
VERTEX
  8
0
  6
DURCHGEHEND
 62
           7
  5
5A5
 10
305.611545580208
 20
217.834680499831
 30
0.0
  0
VERTEX
  8
0
  6
DURCHGEHEND
 62
           7
  5
5A6
 10
305.635983310054
 20
217.938919368129
 30
0.0
  0
VERTEX
  8
0
  6
DURCHGEHEND
 62
           7
  5
5A7
 10
305.65506024723
 20
218.044325116149
 30
0.0
  0
VERTEX
  8
0
  6
DURCHGEHEND
 62
           7
  5
5A8
 10
305.668724103177
 20
218.150608834065
 30
0.0
  0
VERTEX
  8
0
  6
DURCHGEHEND
 62
           7
  5
5A9
 10
305.676937426216
 20
218.257479205592
 30
0.0
  0
SEQEND
  8
0
  6
DURCHGEHEND
 62
           7
  5
5AA
  0
POLYLINE
  8
0
  6
DURCHGEHEND
 62
           7
  5
5AB
 66
           1
 10
0.0
 20
0.0
 30
0.0
 70
           1
1001
ACAD
1000
TCW40_DEV_WIDTH
1002
{
1040
-3.0
1002
}
  0
VERTEX
  8
0
  6
DURCHGEHEND
 62
           7
  5
5AC
 10
266.678726680932
 20
179.447976639803
 30
0.0
  0
VERTEX
  8
0
  6
DURCHGEHEND
 62
           7
  5
5AD
 10
266.675986402949
 20
179.555140740682
 30
0.0
  0
VERTEX
  8
0
  6
DURCHGEHEND
 62
           7
  5
5AE
 10
266.66777307991
 20
179.662011112208
 30
0.0
  0
VERTEX
  8
0
  6
DURCHGEHEND
 62
           7
  5
5AF
 10
266.654109223962
 20
179.768294830124
 30
0.0
  0
VERTEX
  8
0
  6
DURCHGEHEND
 62
           7
  5
5B0
 10
266.635032286786
 20
179.873700578144
 30
0.0
  0
VERTEX
  8
0
  6
DURCHGEHEND
 62
           7
  5
5B1
 10
266.610594556941
 20
179.977939446442
 30
0.0
  0
VERTEX
  8
0
  6
DURCHGEHEND
 62
           7
  5
5B2
 10
266.580863016544
 20
180.080725723523
 30
0.0
  0
VERTEX
  8
0
  6
DURCHGEHEND
 62
           7
  5
5B3
 10
266.545919157681
 20
180.181777679348
 30
0.0
  0
VERTEX
  8
0
  6
DURCHGEHEND
 62
           7
  5
5B4
 10
266.505858759042
 20
180.28081833753
 30
0.0
  0
VERTEX
  8
0
  6
DURCHGEHEND
 62
           7
  5
5B5
 10
266.460791623393
 20
180.377576234508
 30
0.0
  0
VERTEX
  8
0
  6
DURCHGEHEND
 62
           7
  5
5B6
 10
266.410841276622
 20
180.471786163613
 30
0.0
  0
VERTEX
  8
0
  6
DURCHGEHEND
 62
           7
  5
5B7
 10
266.356144629156
 20
180.563189901977
 30
0.0
  0
VERTEX
  8
0
  6
DURCHGEHEND
 62
           7
  5
5B8
 10
266.296851600704
 20
180.651536918307
 30
0.0
  0
VERTEX
  8
0
  6
DURCHGEHEND
 62
           7
  5
5B9
 10
266.233124709337
 20
180.736585059572
 30
0.0
  0
VERTEX
  8
0
  6
DURCHGEHEND
 62
           7
  5
5BA
 10
266.165138626033
 20
180.818101214729
 30
0.0
  0
VERTEX
  8
0
  6
DURCHGEHEND
 62
           7
  5
5BB
 10
266.093079695921
 20
180.895861953661
 30
0.0
  0
VERTEX
  8
0
  6
DURCHGEHEND
 62
           7
  5
5BC
 10
266.01714542752
 20
180.96965413959
 30
0.0
  0
VERTEX
  8
0
  6
DURCHGEHEND
 62
           7
  5
5BD
 10
265.937543951382
 20
181.039275513263
 30
0.0
  0
VERTEX
  8
0
  6
DURCHGEHEND
 62
           7
  5
5BE
 10
265.85449344962
 20
181.104535247333
 30
0.0
  0
VERTEX
  8
0
  6
DURCHGEHEND
 62
           7
  5
5BF
 10
265.768221557886
 20
181.165254469406
 30
0.0
  0
VERTEX
  8
0
  6
DURCHGEHEND
 62
           7
  5
5C0
 10
265.678964741438
 20
181.221266752314
 30
0.0
  0
VERTEX
  8
0
  6
DURCHGEHEND
 62
           7
  5
5C1
 10
265.586967647007
 20
181.272418570284
 30
0.0
  0
VERTEX
  8
0
  6
DURCHGEHEND
 62
           7
  5
5C2
 10
265.492482432233
 20
181.318569719738
 30
0.0
  0
VERTEX
  8
0
  6
DURCHGEHEND
 62
           7
  5
5C3
 10
265.395768074524
 20
181.359593703583
 30
0.0
  0
VERTEX
  8
0
  6
DURCHGEHEND
 62
           7
  5
5C4
 10
265.29708966121
 20
181.395378077931
 30
0.0
  0
VERTEX
  8
0
  6
DURCHGEHEND
 62
           7
  5
5C5
 10
265.196717662963
 20
181.4258247603
 30
0.0
  0
VERTEX
  8
0
  6
DURCHGEHEND
 62
           7
  5
5C6
 10
265.094927192455
 20
181.450850298449
 30
0.0
  0
VERTEX
  8
0
  6
DURCHGEHEND
 62
           7
  5
5C7
 10
264.991997250288
 20
181.470386099117
 30
0.0
  0
VERTEX
  8
0
  6
DURCHGEHEND
 62
           7
  5
5C8
 10
264.888209960281
 20
181.484378616034
 30
0.0
  0
VERTEX
  8
0
  6
DURCHGEHEND
 62
           7
  5
5C9
 10
264.783849796181
 20
181.492789496682
 30
0.0
  0
VERTEX
  8
0
  6
DURCHGEHEND
 62
           7
  5
5CA
 10
264.679202801944
 20
181.495595687422
 30
0.0
  0
VERTEX
  8
0
  6
DURCHGEHEND
 62
           7
  5
5CB
 10
264.574555807706
 20
181.492789496682
 30
0.0
  0
VERTEX
  8
0
  6
DURCHGEHEND
 62
           7
  5
5CC
 10
264.470195643606
 20
181.484378616034
 30
0.0
  0
VERTEX
  8
0
  6
DURCHGEHEND
 62
           7
  5
5CD
 10
264.366408353599
 20
181.470386099117
 30
0.0
  0
VERTEX
  8
0
  6
DURCHGEHEND
 62
           7
  5
5CE
 10
264.263478411433
 20
181.450850298449
 30
0.0
  0
VERTEX
  8
0
  6
DURCHGEHEND
 62
           7
  5
5CF
 10
264.161687940924
 20
181.4258247603
 30
0.0
  0
VERTEX
  8
0
  6
DURCHGEHEND
 62
           7
  5
5D0
 10
264.061315942678
 20
181.395378077931
 30
0.0
  0
VERTEX
  8
0
  6
DURCHGEHEND
 62
           7
  5
5D1
 10
263.962637529364
 20
181.359593703583
 30
0.0
  0
VERTEX
  8
0
  6
DURCHGEHEND
 62
           7
  5
5D2
 10
263.865923171654
 20
181.318569719738
 30
0.0
  0
VERTEX
  8
0
  6
DURCHGEHEND
 62
           7
  5
5D3
 10
263.771437956881
 20
181.272418570284
 30
0.0
  0
VERTEX
  8
0
  6
DURCHGEHEND
 62
           7
  5
5D4
 10
263.679440862449
 20
181.221266752314
 30
0.0
  0
VERTEX
  8
0
  6
DURCHGEHEND
 62
           7
  5
5D5
 10
263.590184046002
 20
181.165254469406
 30
0.0
  0
VERTEX
  8
0
  6
DURCHGEHEND
 62
           7
  5
5D6
 10
263.503912154268
 20
181.104535247333
 30
0.0
  0
VERTEX
  8
0
  6
DURCHGEHEND
 62
           7
  5
5D7
 10
263.420861652505
 20
181.039275513263
 30
0.0
  0
VERTEX
  8
0
  6
DURCHGEHEND
 62
           7
  5
5D8
 10
263.341260176367
 20
180.96965413959
 30
0.0
  0
VERTEX
  8
0
  6
DURCHGEHEND
 62
           7
  5
5D9
 10
263.265325907966
 20
180.895861953661
 30
0.0
  0
VERTEX
  8
0
  6
DURCHGEHEND
 62
           7
  5
5DA
 10
263.193266977855
 20
180.818101214729
 30
0.0
  0
VERTEX
  8
0
  6
DURCHGEHEND
 62
           7
  5
5DB
 10
263.125280894551
 20
180.736585059572
 30
0.0
  0
VERTEX
  8
0
  6
DURCHGEHEND
 62
           7
  5
5DC
 10
263.061554003183
 20
180.651536918307
 30
0.0
  0
VERTEX
  8
0
  6
DURCHGEHEND
 62
           7
  5
5DD
 10
263.002260974732
 20
180.563189901977
 30
0.0
  0
VERTEX
  8
0
  6
DURCHGEHEND
 62
           7
  5
5DE
 10
262.947564327266
 20
180.471786163613
 30
0.0
  0
VERTEX
  8
0
  6
DURCHGEHEND
 62
           7
  5
5DF
 10
262.897613980494
 20
180.377576234508
 30
0.0
  0
VERTEX
  8
0
  6
DURCHGEHEND
 62
           7
  5
5E0
 10
262.852546844846
 20
180.28081833753
 30
0.0
  0
VERTEX
  8
0
  6
DURCHGEHEND
 62
           7
  5
5E1
 10
262.812486446206
 20
180.181777679348
 30
0.0
  0
VERTEX
  8
0
  6
DURCHGEHEND
 62
           7
  5
5E2
 10
262.777542587344
 20
180.080725723523
 30
0.0
  0
VERTEX
  8
0
  6
DURCHGEHEND
 62
           7
  5
5E3
 10
262.747811046947
 20
179.977939446442
 30
0.0
  0
VERTEX
  8
0
  6
DURCHGEHEND
 62
           7
  5
5E4
 10
262.723373317101
 20
179.873700578144
 30
0.0
  0
VERTEX
  8
0
  6
DURCHGEHEND
 62
           7
  5
5E5
 10
262.704296379925
 20
179.768294830124
 30
0.0
  0
VERTEX
  8
0
  6
DURCHGEHEND
 62
           7
  5
5E6
 10
262.690632523978
 20
179.662011112208
 30
0.0
  0
VERTEX
  8
0
  6
DURCHGEHEND
 62
           7
  5
5E7
 10
262.682419200939
 20
179.555140740682
 30
0.0
  0
VERTEX
  8
0
  6
DURCHGEHEND
 62
           7
  5
5E8
 10
262.679678922955
 20
179.447976639803
 30
0.0
  0
VERTEX
  8
0
  6
DURCHGEHEND
 62
           7
  5
5E9
 10
262.682419200939
 20
179.340812538925
 30
0.0
  0
VERTEX
  8
0
  6
DURCHGEHEND
 62
           7
  5
5EA
 10
262.690632523978
 20
179.233942167398
 30
0.0
  0
VERTEX
  8
0
  6
DURCHGEHEND
 62
           7
  5
5EB
 10
262.704296379925
 20
179.127658449483
 30
0.0
  0
VERTEX
  8
0
  6
DURCHGEHEND
 62
           7
  5
5EC
 10
262.723373317101
 20
179.022252701462
 30
0.0
  0
VERTEX
  8
0
  6
DURCHGEHEND
 62
           7
  5
5ED
 10
262.747811046947
 20
178.918013833165
 30
0.0
  0
VERTEX
  8
0
  6
DURCHGEHEND
 62
           7
  5
5EE
 10
262.777542587344
 20
178.815227556083
 30
0.0
  0
VERTEX
  8
0
  6
DURCHGEHEND
 62
           7
  5
5EF
 10
262.812486446206
 20
178.714175600258
 30
0.0
  0
VERTEX
  8
0
  6
DURCHGEHEND
 62
           7
  5
5F0
 10
262.852546844846
 20
178.615134942077
 30
0.0
  0
VERTEX
  8
0
  6
DURCHGEHEND
 62
           7
  5
5F1
 10
262.897613980494
 20
178.518377045099
 30
0.0
  0
VERTEX
  8
0
  6
DURCHGEHEND
 62
           7
  5
5F2
 10
262.947564327266
 20
178.424167115994
 30
0.0
  0
VERTEX
  8
0
  6
DURCHGEHEND
 62
           7
  5
5F3
 10
263.002260974732
 20
178.33276337763
 30
0.0
  0
VERTEX
  8
0
  6
DURCHGEHEND
 62
           7
  5
5F4
 10
263.061554003183
 20
178.2444163613
 30
0.0
  0
VERTEX
  8
0
  6
DURCHGEHEND
 62
           7
  5
5F5
 10
263.125280894551
 20
178.159368220035
 30
0.0
  0
VERTEX
  8
0
  6
DURCHGEHEND
 62
           7
  5
5F6
 10
263.193266977855
 20
178.077852064878
 30
0.0
  0
VERTEX
  8
0
  6
DURCHGEHEND
 62
           7
  5
5F7
 10
263.265325907966
 20
178.000091325945
 30
0.0
  0
VERTEX
  8
0
  6
DURCHGEHEND
 62
           7
  5
5F8
 10
263.341260176367
 20
177.926299140016
 30
0.0
  0
VERTEX
  8
0
  6
DURCHGEHEND
 62
           7
  5
5F9
 10
263.420861652505
 20
177.856677766344
 30
0.0
  0
VERTEX
  8
0
  6
DURCHGEHEND
 62
           7
  5
5FA
 10
263.503912154268
 20
177.791418032274
 30
0.0
  0
VERTEX
  8
0
  6
DURCHGEHEND
 62
           7
  5
5FB
 10
263.590184046002
 20
177.730698810201
 30
0.0
  0
VERTEX
  8
0
  6
DURCHGEHEND
 62
           7
  5
5FC
 10
263.679440862449
 20
177.674686527292
 30
0.0
  0
VERTEX
  8
0
  6
DURCHGEHEND
 62
           7
  5
5FD
 10
263.771437956881
 20
177.623534709322
 30
0.0
  0
VERTEX
  8
0
  6
DURCHGEHEND
 62
           7
  5
5FE
 10
263.865923171654
 20
177.577383559868
 30
0.0
  0
VERTEX
  8
0
  6
DURCHGEHEND
 62
           7
  5
5FF
 10
263.962637529364
 20
177.536359576023
 30
0.0
  0
VERTEX
  8
0
  6
DURCHGEHEND
 62
           7
  5
600
 10
264.061315942678
 20
177.500575201675
 30
0.0
  0
VERTEX
  8
0
  6
DURCHGEHEND
 62
           7
  5
601
 10
264.161687940924
 20
177.470128519307
 30
0.0
  0
VERTEX
  8
0
  6
DURCHGEHEND
 62
           7
  5
602
 10
264.263478411433
 20
177.445102981158
 30
0.0
  0
VERTEX
  8
0
  6
DURCHGEHEND
 62
           7
  5
603
 10
264.366408353599
 20
177.425567180489
 30
0.0
  0
VERTEX
  8
0
  6
DURCHGEHEND
 62
           7
  5
604
 10
264.470195643606
 20
177.411574663573
 30
0.0
  0
VERTEX
  8
0
  6
DURCHGEHEND
 62
           7
  5
605
 10
264.574555807706
 20
177.403163782925
 30
0.0
  0
VERTEX
  8
0
  6
DURCHGEHEND
 62
           7
  5
606
 10
264.679202801944
 20
177.400357592184
 30
0.0
  0
VERTEX
  8
0
  6
DURCHGEHEND
 62
           7
  5
607
 10
264.783849796181
 20
177.403163782925
 30
0.0
  0
VERTEX
  8
0
  6
DURCHGEHEND
 62
           7
  5
608
 10
264.888209960281
 20
177.411574663573
 30
0.0
  0
VERTEX
  8
0
  6
DURCHGEHEND
 62
           7
  5
609
 10
264.991997250288
 20
177.425567180489
 30
0.0
  0
VERTEX
  8
0
  6
DURCHGEHEND
 62
           7
  5
60A
 10
265.094927192455
 20
177.445102981158
 30
0.0
  0
VERTEX
  8
0
  6
DURCHGEHEND
 62
           7
  5
60B
 10
265.196717662963
 20
177.470128519307
 30
0.0
  0
VERTEX
  8
0
  6
DURCHGEHEND
 62
           7
  5
60C
 10
265.29708966121
 20
177.500575201675
 30
0.0
  0
VERTEX
  8
0
  6
DURCHGEHEND
 62
           7
  5
60D
 10
265.395768074524
 20
177.536359576023
 30
0.0
  0
VERTEX
  8
0
  6
DURCHGEHEND
 62
           7
  5
60E
 10
265.492482432233
 20
177.577383559868
 30
0.0
  0
VERTEX
  8
0
  6
DURCHGEHEND
 62
           7
  5
60F
 10
265.586967647007
 20
177.623534709322
 30
0.0
  0
VERTEX
  8
0
  6
DURCHGEHEND
 62
           7
  5
610
 10
265.678964741438
 20
177.674686527292
 30
0.0
  0
VERTEX
  8
0
  6
DURCHGEHEND
 62
           7
  5
611
 10
265.768221557886
 20
177.730698810201
 30
0.0
  0
VERTEX
  8
0
  6
DURCHGEHEND
 62
           7
  5
612
 10
265.85449344962
 20
177.791418032274
 30
0.0
  0
VERTEX
  8
0
  6
DURCHGEHEND
 62
           7
  5
613
 10
265.937543951382
 20
177.856677766344
 30
0.0
  0
VERTEX
  8
0
  6
DURCHGEHEND
 62
           7
  5
614
 10
266.01714542752
 20
177.926299140016
 30
0.0
  0
VERTEX
  8
0
  6
DURCHGEHEND
 62
           7
  5
615
 10
266.093079695921
 20
178.000091325945
 30
0.0
  0
VERTEX
  8
0
  6
DURCHGEHEND
 62
           7
  5
616
 10
266.165138626033
 20
178.077852064878
 30
0.0
  0
VERTEX
  8
0
  6
DURCHGEHEND
 62
           7
  5
617
 10
266.233124709337
 20
178.159368220035
 30
0.0
  0
VERTEX
  8
0
  6
DURCHGEHEND
 62
           7
  5
618
 10
266.296851600704
 20
178.2444163613
 30
0.0
  0
VERTEX
  8
0
  6
DURCHGEHEND
 62
           7
  5
619
 10
266.356144629156
 20
178.33276337763
 30
0.0
  0
VERTEX
  8
0
  6
DURCHGEHEND
 62
           7
  5
61A
 10
266.410841276622
 20
178.424167115994
 30
0.0
  0
VERTEX
  8
0
  6
DURCHGEHEND
 62
           7
  5
61B
 10
266.460791623393
 20
178.518377045099
 30
0.0
  0
VERTEX
  8
0
  6
DURCHGEHEND
 62
           7
  5
61C
 10
266.505858759042
 20
178.615134942077
 30
0.0
  0
VERTEX
  8
0
  6
DURCHGEHEND
 62
           7
  5
61D
 10
266.545919157681
 20
178.714175600258
 30
0.0
  0
VERTEX
  8
0
  6
DURCHGEHEND
 62
           7
  5
61E
 10
266.580863016544
 20
178.815227556083
 30
0.0
  0
VERTEX
  8
0
  6
DURCHGEHEND
 62
           7
  5
61F
 10
266.610594556941
 20
178.918013833165
 30
0.0
  0
VERTEX
  8
0
  6
DURCHGEHEND
 62
           7
  5
620
 10
266.635032286786
 20
179.022252701462
 30
0.0
  0
VERTEX
  8
0
  6
DURCHGEHEND
 62
           7
  5
621
 10
266.654109223962
 20
179.127658449483
 30
0.0
  0
VERTEX
  8
0
  6
DURCHGEHEND
 62
           7
  5
622
 10
266.66777307991
 20
179.233942167398
 30
0.0
  0
VERTEX
  8
0
  6
DURCHGEHEND
 62
           7
  5
623
 10
266.675986402949
 20
179.340812538925
 30
0.0
  0
SEQEND
  8
0
  6
DURCHGEHEND
 62
           7
  5
624
  0
POLYLINE
  8
0
  6
DURCHGEHEND
 62
           7
  5
625
 66
           1
 10
0.0
 20
0.0
 30
0.0
 70
           1
1001
ACAD
1000
TCW40_DEV_WIDTH
1002
{
1040
-3.0
1002
}
  0
VERTEX
  8
0
  6
DURCHGEHEND
 62
           7
  5
626
 10
305.679678922955
 20
179.459881401708
 30
0.0
  0
VERTEX
  8
0
  6
DURCHGEHEND
 62
           7
  5
627
 10
305.676938644972
 20
179.567045502586
 30
0.0
  0
VERTEX
  8
0
  6
DURCHGEHEND
 62
           7
  5
628
 10
305.668725321932
 20
179.673915874113
 30
0.0
  0
VERTEX
  8
0
  6
DURCHGEHEND
 62
           7
  5
629
 10
305.655061465985
 20
179.780199592029
 30
0.0
  0
VERTEX
  8
0
  6
DURCHGEHEND
 62
           7
  5
62A
 10
305.635984528809
 20
179.885605340049
 30
0.0
  0
VERTEX
  8
0
  6
DURCHGEHEND
 62
           7
  5
62B
 10
305.611546798963
 20
179.989844208347
 30
0.0
  0
VERTEX
  8
0
  6
DURCHGEHEND
 62
           7
  5
62C
 10
305.581815258566
 20
180.092630485428
 30
0.0
  0
VERTEX
  8
0
  6
DURCHGEHEND
 62
           7
  5
62D
 10
305.546871399704
 20
180.193682441253
 30
0.0
  0
VERTEX
  8
0
  6
DURCHGEHEND
 62
           7
  5
62E
 10
305.506811001064
 20
180.292723099435
 30
0.0
  0
VERTEX
  8
0
  6
DURCHGEHEND
 62
           7
  5
62F
 10
305.461743865416
 20
180.389480996413
 30
0.0
  0
VERTEX
  8
0
  6
DURCHGEHEND
 62
           7
  5
630
 10
305.411793518644
 20
180.483690925518
 30
0.0
  0
VERTEX
  8
0
  6
DURCHGEHEND
 62
           7
  5
631
 10
305.357096871178
 20
180.575094663882
 30
0.0
  0
VERTEX
  8
0
  6
DURCHGEHEND
 62
           7
  5
632
 10
305.297803842727
 20
180.663441680212
 30
0.0
  0
VERTEX
  8
0
  6
DURCHGEHEND
 62
           7
  5
633
 10
305.234076951359
 20
180.748489821477
 30
0.0
  0
VERTEX
  8
0
  6
DURCHGEHEND
 62
           7
  5
634
 10
305.166090868055
 20
180.830005976633
 30
0.0
  0
VERTEX
  8
0
  6
DURCHGEHEND
 62
           7
  5
635
 10
305.094031937944
 20
180.907766715566
 30
0.0
  0
VERTEX
  8
0
  6
DURCHGEHEND
 62
           7
  5
636
 10
305.018097669543
 20
180.981558901495
 30
0.0
  0
VERTEX
  8
0
  6
DURCHGEHEND
 62
           7
  5
637
 10
304.938496193405
 20
181.051180275168
 30
0.0
  0
VERTEX
  8
0
  6
DURCHGEHEND
 62
           7
  5
638
 10
304.855445691643
 20
181.116440009238
 30
0.0
  0
VERTEX
  8
0
  6
DURCHGEHEND
 62
           7
  5
639
 10
304.769173799908
 20
181.177159231311
 30
0.0
  0
VERTEX
  8
0
  6
DURCHGEHEND
 62
           7
  5
63A
 10
304.679916983461
 20
181.233171514219
 30
0.0
  0
VERTEX
  8
0
  6
DURCHGEHEND
 62
           7
  5
63B
 10
304.58791988903
 20
181.284323332189
 30
0.0
  0
VERTEX
  8
0
  6
DURCHGEHEND
 62
           7
  5
63C
 10
304.493434674256
 20
181.330474481643
 30
0.0
  0
VERTEX
  8
0
  6
DURCHGEHEND
 62
           7
  5
63D
 10
304.396720316546
 20
181.371498465488
 30
0.0
  0
VERTEX
  8
0
  6
DURCHGEHEND
 62
           7
  5
63E
 10
304.298041903232
 20
181.407282839836
 30
0.0
  0
VERTEX
  8
0
  6
DURCHGEHEND
 62
           7
  5
63F
 10
304.197669904986
 20
181.437729522205
 30
0.0
  0
VERTEX
  8
0
  6
DURCHGEHEND
 62
           7
  5
640
 10
304.095879434477
 20
181.462755060353
 30
0.0
  0
VERTEX
  8
0
  6
DURCHGEHEND
 62
           7
  5
641
 10
303.992949492311
 20
181.482290861022
 30
0.0
  0
VERTEX
  8
0
  6
DURCHGEHEND
 62
           7
  5
642
 10
303.889162202304
 20
181.496283377938
 30
0.0
  0
VERTEX
  8
0
  6
DURCHGEHEND
 62
           7
  5
643
 10
303.784802038204
 20
181.504694258586
 30
0.0
  0
VERTEX
  8
0
  6
DURCHGEHEND
 62
           7
  5
644
 10
303.680155043966
 20
181.507500449327
 30
0.0
  0
VERTEX
  8
0
  6
DURCHGEHEND
 62
           7
  5
645
 10
303.575508049729
 20
181.504694258586
 30
0.0
  0
VERTEX
  8
0
  6
DURCHGEHEND
 62
           7
  5
646
 10
303.471147885629
 20
181.496283377938
 30
0.0
  0
VERTEX
  8
0
  6
DURCHGEHEND
 62
           7
  5
647
 10
303.367360595622
 20
181.482290861022
 30
0.0
  0
VERTEX
  8
0
  6
DURCHGEHEND
 62
           7
  5
648
 10
303.264430653455
 20
181.462755060353
 30
0.0
  0
VERTEX
  8
0
  6
DURCHGEHEND
 62
           7
  5
649
 10
303.162640182947
 20
181.437729522205
 30
0.0
  0
VERTEX
  8
0
  6
DURCHGEHEND
 62
           7
  5
64A
 10
303.0622681847
 20
181.407282839836
 30
0.0
  0
VERTEX
  8
0
  6
DURCHGEHEND
 62
           7
  5
64B
 10
302.963589771386
 20
181.371498465488
 30
0.0
  0
VERTEX
  8
0
  6
DURCHGEHEND
 62
           7
  5
64C
 10
302.866875413677
 20
181.330474481643
 30
0.0
  0
VERTEX
  8
0
  6
DURCHGEHEND
 62
           7
  5
64D
 10
302.772390198903
 20
181.284323332189
 30
0.0
  0
VERTEX
  8
0
  6
DURCHGEHEND
 62
           7
  5
64E
 10
302.680393104472
 20
181.233171514219
 30
0.0
  0
VERTEX
  8
0
  6
DURCHGEHEND
 62
           7
  5
64F
 10
302.591136288024
 20
181.177159231311
 30
0.0
  0
VERTEX
  8
0
  6
DURCHGEHEND
 62
           7
  5
650
 10
302.50486439629
 20
181.116440009238
 30
0.0
  0
VERTEX
  8
0
  6
DURCHGEHEND
 62
           7
  5
651
 10
302.421813894528
 20
181.051180275168
 30
0.0
  0
VERTEX
  8
0
  6
DURCHGEHEND
 62
           7
  5
652
 10
302.34221241839
 20
180.981558901495
 30
0.0
  0
VERTEX
  8
0
  6
DURCHGEHEND
 62
           7
  5
653
 10
302.266278149989
 20
180.907766715566
 30
0.0
  0
VERTEX
  8
0
  6
DURCHGEHEND
 62
           7
  5
654
 10
302.194219219877
 20
180.830005976633
 30
0.0
  0
VERTEX
  8
0
  6
DURCHGEHEND
 62
           7
  5
655
 10
302.126233136574
 20
180.748489821477
 30
0.0
  0
VERTEX
  8
0
  6
DURCHGEHEND
 62
           7
  5
656
 10
302.062506245206
 20
180.663441680212
 30
0.0
  0
VERTEX
  8
0
  6
DURCHGEHEND
 62
           7
  5
657
 10
302.003213216755
 20
180.575094663882
 30
0.0
  0
VERTEX
  8
0
  6
DURCHGEHEND
 62
           7
  5
658
 10
301.948516569289
 20
180.483690925518
 30
0.0
  0
VERTEX
  8
0
  6
DURCHGEHEND
 62
           7
  5
659
 10
301.898566222517
 20
180.389480996413
 30
0.0
  0
VERTEX
  8
0
  6
DURCHGEHEND
 62
           7
  5
65A
 10
301.853499086868
 20
180.292723099435
 30
0.0
  0
VERTEX
  8
0
  6
DURCHGEHEND
 62
           7
  5
65B
 10
301.813438688229
 20
180.193682441253
 30
0.0
  0
VERTEX
  8
0
  6
DURCHGEHEND
 62
           7
  5
65C
 10
301.778494829366
 20
180.092630485428
 30
0.0
  0
VERTEX
  8
0
  6
DURCHGEHEND
 62
           7
  5
65D
 10
301.74876328897
 20
179.989844208347
 30
0.0
  0
VERTEX
  8
0
  6
DURCHGEHEND
 62
           7
  5
65E
 10
301.724325559124
 20
179.885605340049
 30
0.0
  0
VERTEX
  8
0
  6
DURCHGEHEND
 62
           7
  5
65F
 10
301.705248621948
 20
179.780199592029
 30
0.0
  0
VERTEX
  8
0
  6
DURCHGEHEND
 62
           7
  5
660
 10
301.691584766
 20
179.673915874113
 30
0.0
  0
VERTEX
  8
0
  6
DURCHGEHEND
 62
           7
  5
661
 10
301.683371442961
 20
179.567045502586
 30
0.0
  0
VERTEX
  8
0
  6
DURCHGEHEND
 62
           7
  5
662
 10
301.680631164978
 20
179.459881401708
 30
0.0
  0
VERTEX
  8
0
  6
DURCHGEHEND
 62
           7
  5
663
 10
301.683371442961
 20
179.35271730083
 30
0.0
  0
VERTEX
  8
0
  6
DURCHGEHEND
 62
           7
  5
664
 10
301.691584766
 20
179.245846929303
 30
0.0
  0
VERTEX
  8
0
  6
DURCHGEHEND
 62
           7
  5
665
 10
301.705248621948
 20
179.139563211388
 30
0.0
  0
VERTEX
  8
0
  6
DURCHGEHEND
 62
           7
  5
666
 10
301.724325559124
 20
179.034157463367
 30
0.0
  0
VERTEX
  8
0
  6
DURCHGEHEND
 62
           7
  5
667
 10
301.74876328897
 20
178.92991859507
 30
0.0
  0
VERTEX
  8
0
  6
DURCHGEHEND
 62
           7
  5
668
 10
301.778494829366
 20
178.827132317988
 30
0.0
  0
VERTEX
  8
0
  6
DURCHGEHEND
 62
           7
  5
669
 10
301.813438688229
 20
178.726080362163
 30
0.0
  0
VERTEX
  8
0
  6
DURCHGEHEND
 62
           7
  5
66A
 10
301.853499086868
 20
178.627039703981
 30
0.0
  0
VERTEX
  8
0
  6
DURCHGEHEND
 62
           7
  5
66B
 10
301.898566222517
 20
178.530281807003
 30
0.0
  0
VERTEX
  8
0
  6
DURCHGEHEND
 62
           7
  5
66C
 10
301.948516569289
 20
178.436071877899
 30
0.0
  0
VERTEX
  8
0
  6
DURCHGEHEND
 62
           7
  5
66D
 10
302.003213216755
 20
178.344668139534
 30
0.0
  0
VERTEX
  8
0
  6
DURCHGEHEND
 62
           7
  5
66E
 10
302.062506245206
 20
178.256321123204
 30
0.0
  0
VERTEX
  8
0
  6
DURCHGEHEND
 62
           7
  5
66F
 10
302.126233136574
 20
178.171272981939
 30
0.0
  0
VERTEX
  8
0
  6
DURCHGEHEND
 62
           7
  5
670
 10
302.194219219877
 20
178.089756826783
 30
0.0
  0
VERTEX
  8
0
  6
DURCHGEHEND
 62
           7
  5
671
 10
302.266278149989
 20
178.01199608785
 30
0.0
  0
VERTEX
  8
0
  6
DURCHGEHEND
 62
           7
  5
672
 10
302.34221241839
 20
177.938203901921
 30
0.0
  0
VERTEX
  8
0
  6
DURCHGEHEND
 62
           7
  5
673
 10
302.421813894528
 20
177.868582528249
 30
0.0
  0
VERTEX
  8
0
  6
DURCHGEHEND
 62
           7
  5
674
 10
302.50486439629
 20
177.803322794178
 30
0.0
  0
VERTEX
  8
0
  6
DURCHGEHEND
 62
           7
  5
675
 10
302.591136288025
 20
177.742603572106
 30
0.0
  0
VERTEX
  8
0
  6
DURCHGEHEND
 62
           7
  5
676
 10
302.680393104472
 20
177.686591289197
 30
0.0
  0
VERTEX
  8
0
  6
DURCHGEHEND
 62
           7
  5
677
 10
302.772390198903
 20
177.635439471227
 30
0.0
  0
VERTEX
  8
0
  6
DURCHGEHEND
 62
           7
  5
678
 10
302.866875413677
 20
177.589288321773
 30
0.0
  0
VERTEX
  8
0
  6
DURCHGEHEND
 62
           7
  5
679
 10
302.963589771386
 20
177.548264337928
 30
0.0
  0
VERTEX
  8
0
  6
DURCHGEHEND
 62
           7
  5
67A
 10
303.0622681847
 20
177.51247996358
 30
0.0
  0
VERTEX
  8
0
  6
DURCHGEHEND
 62
           7
  5
67B
 10
303.162640182947
 20
177.482033281211
 30
0.0
  0
VERTEX
  8
0
  6
DURCHGEHEND
 62
           7
  5
67C
 10
303.264430653455
 20
177.457007743063
 30
0.0
  0
VERTEX
  8
0
  6
DURCHGEHEND
 62
           7
  5
67D
 10
303.367360595622
 20
177.437471942394
 30
0.0
  0
VERTEX
  8
0
  6
DURCHGEHEND
 62
           7
  5
67E
 10
303.471147885629
 20
177.423479425478
 30
0.0
  0
VERTEX
  8
0
  6
DURCHGEHEND
 62
           7
  5
67F
 10
303.575508049729
 20
177.41506854483
 30
0.0
  0
VERTEX
  8
0
  6
DURCHGEHEND
 62
           7
  5
680
 10
303.680155043966
 20
177.412262354089
 30
0.0
  0
VERTEX
  8
0
  6
DURCHGEHEND
 62
           7
  5
681
 10
303.784802038204
 20
177.41506854483
 30
0.0
  0
VERTEX
  8
0
  6
DURCHGEHEND
 62
           7
  5
682
 10
303.889162202304
 20
177.423479425478
 30
0.0
  0
VERTEX
  8
0
  6
DURCHGEHEND
 62
           7
  5
683
 10
303.992949492311
 20
177.437471942394
 30
0.0
  0
VERTEX
  8
0
  6
DURCHGEHEND
 62
           7
  5
684
 10
304.095879434477
 20
177.457007743063
 30
0.0
  0
VERTEX
  8
0
  6
DURCHGEHEND
 62
           7
  5
685
 10
304.197669904986
 20
177.482033281211
 30
0.0
  0
VERTEX
  8
0
  6
DURCHGEHEND
 62
           7
  5
686
 10
304.298041903232
 20
177.51247996358
 30
0.0
  0
VERTEX
  8
0
  6
DURCHGEHEND
 62
           7
  5
687
 10
304.396720316546
 20
177.548264337928
 30
0.0
  0
VERTEX
  8
0
  6
DURCHGEHEND
 62
           7
  5
688
 10
304.493434674256
 20
177.589288321773
 30
0.0
  0
VERTEX
  8
0
  6
DURCHGEHEND
 62
           7
  5
689
 10
304.58791988903
 20
177.635439471227
 30
0.0
  0
VERTEX
  8
0
  6
DURCHGEHEND
 62
           7
  5
68A
 10
304.679916983461
 20
177.686591289197
 30
0.0
  0
VERTEX
  8
0
  6
DURCHGEHEND
 62
           7
  5
68B
 10
304.769173799908
 20
177.742603572106
 30
0.0
  0
VERTEX
  8
0
  6
DURCHGEHEND
 62
           7
  5
68C
 10
304.855445691643
 20
177.803322794178
 30
0.0
  0
VERTEX
  8
0
  6
DURCHGEHEND
 62
           7
  5
68D
 10
304.938496193405
 20
177.868582528249
 30
0.0
  0
VERTEX
  8
0
  6
DURCHGEHEND
 62
           7
  5
68E
 10
305.018097669543
 20
177.938203901921
 30
0.0
  0
VERTEX
  8
0
  6
DURCHGEHEND
 62
           7
  5
68F
 10
305.094031937944
 20
178.01199608785
 30
0.0
  0
VERTEX
  8
0
  6
DURCHGEHEND
 62
           7
  5
690
 10
305.166090868055
 20
178.089756826783
 30
0.0
  0
VERTEX
  8
0
  6
DURCHGEHEND
 62
           7
  5
691
 10
305.234076951359
 20
178.171272981939
 30
0.0
  0
VERTEX
  8
0
  6
DURCHGEHEND
 62
           7
  5
692
 10
305.297803842727
 20
178.256321123204
 30
0.0
  0
VERTEX
  8
0
  6
DURCHGEHEND
 62
           7
  5
693
 10
305.357096871178
 20
178.344668139534
 30
0.0
  0
VERTEX
  8
0
  6
DURCHGEHEND
 62
           7
  5
694
 10
305.411793518644
 20
178.436071877899
 30
0.0
  0
VERTEX
  8
0
  6
DURCHGEHEND
 62
           7
  5
695
 10
305.461743865416
 20
178.530281807003
 30
0.0
  0
VERTEX
  8
0
  6
DURCHGEHEND
 62
           7
  5
696
 10
305.506811001064
 20
178.627039703981
 30
0.0
  0
VERTEX
  8
0
  6
DURCHGEHEND
 62
           7
  5
697
 10
305.546871399704
 20
178.726080362163
 30
0.0
  0
VERTEX
  8
0
  6
DURCHGEHEND
 62
           7
  5
698
 10
305.581815258566
 20
178.827132317988
 30
0.0
  0
VERTEX
  8
0
  6
DURCHGEHEND
 62
           7
  5
699
 10
305.611546798963
 20
178.92991859507
 30
0.0
  0
VERTEX
  8
0
  6
DURCHGEHEND
 62
           7
  5
69A
 10
305.635984528809
 20
179.034157463367
 30
0.0
  0
VERTEX
  8
0
  6
DURCHGEHEND
 62
           7
  5
69B
 10
305.655061465985
 20
179.139563211388
 30
0.0
  0
VERTEX
  8
0
  6
DURCHGEHEND
 62
           7
  5
69C
 10
305.668725321932
 20
179.245846929303
 30
0.0
  0
VERTEX
  8
0
  6
DURCHGEHEND
 62
           7
  5
69D
 10
305.676938644971
 20
179.35271730083
 30
0.0
  0
SEQEND
  8
0
  6
DURCHGEHEND
 62
           7
  5
69E
  0
ENDSEC
  0
EOF
